Deathstars - Our God The Drugs tab

Deathstars-Our god the drugs

Drop D


Intro:

|-------------------|-----------------------| |-------------------|-----------------------| |-------------------|-----------------------| |-------------------|-----------------------| |9~-----------------|5~---------------------| |9~-----------------|5~---------------------|
|-------------------|-----------------------| |-------------------|-----------------------| |-------------------|-----------------------| |-------------------|-----------------------| |2~-----------------|5~---------8~----------| |2~-----------------|5~---------8~----------|
|-------------------|-------------------| |-------------------|-------------------| |-------------------|-------------------| |-------------------|-------------------| |9-9----9----9----9-|9-9----9----9----9-| |9-9-00-9-00-9-00-9-|9-9-00-9-00-9-00-9-| PM .. .. .. .. .. ..
|-------------------|-------------------| |-------------------|-------------------| |-------------------|-------------------| |-------------------|-------------------| |5-5----5----5----5-|2-2----2----5-00-8-| |5-5-00-5-00-5-00-5-|2-2-00-2-00-5-00-8-| PM .. .. .. .. .. ..
|-------------------|-------------------| |-------------------|-------------------| |-------------------|-------------------| |-------------------|-------------------| |9-9----9----9----9-|9-9----9----9----9-| |9-9-00-9-00-9-00-9-|9-9-00-9-00-9-00-9-| PM .. .. .. .. .. ..
|-------------------|-------------------| |-------------------|-------------------| |-------------------|-------------------| |-------------------|-------------------| |5-5----5----5----5-|2-2----2----5-00-8-| |5-5-00-5-00-5-00-5-|2-2-00-2-00-5-00-8-| PM .. .. .. .. .. ..
Verse: |----------------|----------------------| |----------------|----------------------| |----------------|----------------------| |----------------|----------------------| |----------------|----------------------| |9-9-9-9-9-9-9-9-|9-9-9-9-9-9-9-9-------| PM . . . . . . . . . . . . . . . .
|----------------|----------------------| |----------------|----------------------| |----------------|----------------------| |----------------|----------------------| |----------------|----------------------| |5-5-5-5-5-5-5-5-|2-2-2-2-2-5-5-8-------| PM . . . . . . . . . . . . . . . .
|----------------|----------------------| |----------------|----------------------| |----------------|----------------------| |----------------|----------------------| |----------------|----------------------| |9-9-9-9-9-9-9-9-|9-9-9-9-9-9-9-9-------| PM . . . . . . . . . . . . . . . .
|----------------|----------------------| |----------------|----------------------| |----------------|----------------------| |----------------|----------------------| |----------------|----------------------| |5-5-5-5-5-5-5-5-|2-2-2-2-2-5-5-8-------| PM . . . . . . . . . . . . . . . .
|----------------|----------------------| |----------------|----------------------| |----------------|----------------------| |----------------|----------------------| |----------------|----------------------| |9-9-9-9-9-9-9-9-|9-9-9-9-9-9-9-9-------| PM . . . . . . . . . . . . . . . .
|----------------|----------------------| |----------------|----------------------| |----------------|----------------------| |----------------|----------------------| |----------------|----------------------| |5-5-5-5-5-5-5-5-|2-2-2-2-2-5-5-8-------| PM . . . . . . . . . . . . . . . .
|----------------|----------------------| |----------------|----------------------| |----------------|----------------------| |----------------|----------------------| |----------------|----------------------| |9-9-9-9-9-9-9-9-|9-9-9-9-9-9-9-9-------| PM . . . . . . . . . . . . . . . .
|----------------|----------------------| |----------------|----------------------| |----------------|----------------------| |----------------|----------------------| |----------------|2---------------------| |5-5-5-5-5-5-5-5-|2---------------------| PM . . . . . . . .
Chorus:
|-------------------|-------------------| |-------------------|-------------------| |-------------------|-------------------| |-------------------|-------------------| |9-9----9----9----9-|9-9----9----9----9-| |9-9-00-9-00-9-00-9-|9-9-00-9-00-9-00-9-| PM .. .. .. .. .. ..
|-------------------|-------------------| |-------------------|-------------------| |-------------------|-------------------| |-------------------|-------------------| |5-5----5----5----5-|2-2----2----5/8/---| |5-5-00-5-00-5-00-5-|2-2-00-2-00-5/8/---| PM .. .. .. .. ..
|-------------------|-------------------| |-------------------|-------------------| |-------------------|-------------------| |-------------------|-------------------| |9-9----9----9----9-|9-9----9----9----9-| |9-9-00-9-00-9-00-9-|9-9-00-9-00-9-00-9-| PM .. .. .. .. .. ..
|-------------------|-------------------| |-------------------|-------------------| |-------------------|-------------------| |-------------------|-------------------| |5-5----5----5----5-|2-2----2----5/8----| |5-5-00-5-00-5-00-5-|2-2-00-2-00-5/8----| PM .. .. .. .. ..
Verse: |----------------|----------------------| |----------------|----------------------| |----------------|----------------------| |----------------|----------------------| |----------------|----------------------| |9-9-9-9-9-9-9-9-|9-9-9-9-9-9-9-9-------| PM . . . . . . . . . . . . . . . .
|----------------|----------------------| |----------------|----------------------| |----------------|----------------------| |----------------|----------------------| |----------------|----------------------| |5-5-5-5-5-5-5-5-|2-2-2-2-2-5-5-8-------| PM . . . . . . . . . . . . . . . .
|----------------|----------------------| |----------------|----------------------| |----------------|----------------------| |----------------|----------------------| |----------------|----------------------| |9-9-9-9-9-9-9-9-|9-9-9-9-9-9-9-9-------| PM . . . . . . . . . . . . . . . .
|----------------|----------------------| |----------------|----------------------| |----------------|----------------------| |----------------|----------------------| |----------------|----------------------| |5-5-5-5-5-5-5-5-|2-2-2-2-2-5-5-8-------| PM . . . . . . . . . . . . . . . .
|----------------|----------------------| |----------------|----------------------| |----------------|----------------------| |----------------|----------------------| |----------------|----------------------| |9-9-9-9-9-9-9-9-|9-9-9-9-9-9-9-9-------| PM . . . . . . . . . . . . . . . .
|----------------|----------------------| |----------------|----------------------| |----------------|----------------------| |----------------|----------------------| |----------------|----------------------| |5-5-5-5-5-5-5-5-|2-2-2-2-2-5-5-8-------| PM . . . . . . . . . . . . . . . .
|----------------|----------------------| |----------------|----------------------| |----------------|----------------------| |----------------|----------------------| |----------------|----------------------| |9-9-9-9-9-9-9-9-|9-9-9-9-9-9-9-9-------| PM . . . . . . . . . . . . . . . .
|----------------|----------------------| |----------------|----------------------| |----------------|----------------------| |----------------|----------------------| |----------------|2---------------------| |5-5-5-5-5-5-5-5-|2---------------------| PM . . . . . . . .
Chorus:
|-------------------|-------------------| |-------------------|-------------------| |-------------------|-------------------| |-------------------|-------------------| |9-9----9----9----9-|9-9----9----9----9-| |9-9-00-9-00-9-00-9-|9-9-00-9-00-9-00-9-| PM .. .. .. .. .. ..
|-------------------|-------------------| |-------------------|-------------------| |-------------------|-------------------| |-------------------|-------------------| |5-5----5----5----5-|2-2----2----5/8/---| |5-5-00-5-00-5-00-5-|2-2-00-2-00-5/8/---| PM .. .. .. .. ..
|-------------------|-------------------| |-------------------|-------------------| |-------------------|-------------------| |-------------------|-------------------| |9-9----9----9----9-|9-9----9----9----9-| |9-9-00-9-00-9-00-9-|9-9-00-9-00-9-00-9-| PM .. .. .. .. .. ..
|-------------------|-------------------| |-------------------|-------------------| |-------------------|-------------------| |-------------------|-------------------| |5-5----5----5----5-|2-2----2----5/8----| |5-5-00-5-00-5-00-5-|2-2-00-2-00-5/8----| PM .. .. .. .. ..
before the solo starts (nearly the same as the chorus):
|-------------------|-------------------| |-------------------|-------------------| |-------------------|-------------------| |-------------------|-------------------| |9-9----9----9----9-|9-9----9----9----9-| |9-9----9----9----9-|9-9----9----9----9-|
|-------------------|-------------------| |-------------------|-------------------| |-------------------|-------------------| |-------------------|-------------------| |5-5----5----5----5-|2-2----2----5---8--| |5-5----5----5----5-|2-2----2----5---8--|
|-------------------|-------------------| |-------------------|-------------------| |-------------------|-------------------| |-------------------|-------------------| |9-9----9----9----9-|9-9----9----9----9-| |9-9----9----9----9-|9-9----9----9----9-|
|-------------------|-------------------| |-------------------|-------------------| |-------------------|-------------------| |-------------------|-------------------| |5-5----5----5----5-|2-2----2----5---8--| |5-5----5----5----5-|2-2----2----5---8--|
Solo: I'm sorry Chorus:
|-------------------|-------------------| |-------------------|-------------------| |-------------------|-------------------| |-------------------|-------------------| |9-9----9----9----9-|9-9----9----9----9-| |9-9-00-9-00-9-00-9-|9-9-00-9-00-9-00-9-| PM .. .. .. .. .. ..
|-------------------|-------------------| |-------------------|-------------------| |-------------------|-------------------| |-------------------|-------------------| |5-5----5----5----5-|2-2----2----5/8/---| |5-5-00-5-00-5-00-5-|2-2-00-2-00-5/8/---| PM .. .. .. .. ..
|-------------------|-------------------| |-------------------|-------------------| |-------------------|-------------------| |-------------------|-------------------| |9-9----9----9----9-|9-9----9----9----9-| |9-9-00-9-00-9-00-9-|9-9-00-9-00-9-00-9-| PM .. .. .. .. .. ..
|-------------------|-------------------| |-------------------|-------------------| |-------------------|-------------------| |-------------------|-------------------| |5-5----5----5----5-|2-2----2----5/8----| |5-5-00-5-00-5-00-5-|2-2-00-2-00-5/8----| PM .. .. .. .. ..
|-------------------|-------------------| |-------------------|-------------------| |-------------------|-------------------| |-------------------|-------------------| |9-9----9----9----9-|9-9----9----9----9-| |9-9-00-9-00-9-00-9-|9-9-00-9-00-9-00-9-| PM .. .. .. .. .. ..
|-------------------|-------------------| |-------------------|-------------------| |-------------------|-------------------| |-------------------|-------------------| |5-5----5----5----5-|2-2----2----5/8/---| |5-5-00-5-00-5-00-5-|2-2-00-2-00-5/8/---| PM .. .. .. .. ..
|-------------------|-------------------| |-------------------|-------------------| |-------------------|-------------------| |-------------------|-------------------| |9-9----9----9----9-|9-9----9----9----9-| |9-9-00-9-00-9-00-9-|9-9-00-9-00-9-00-9-| PM .. .. .. .. .. ..
|-------------------|-------------------| |-------------------|-------------------| |-------------------|-------------------| |-------------------|-------------------| |5-5----5----5----5-|2-2----2----5/8----| |5-5-00-5-00-5-00-5-|2-2-00-2-00-5/8----| PM .. .. .. .. ..
|-------------------|-------------------| |-------------------|-------------------| |-------------------|-------------------| |-------------------|-------------------| |9~-----------------|-------------------| |9~-----------------|-------------------|
by D-Knot thank you for using this tab ;)
Tap to rate this tab
 
# A B C D E F G H I J K L M N O P Q R S T U V W X Y Z