Debussy Claude - Images tab

Intro acoustic guitar 1

All harmonics:E||------------------------|------------------------|B||------12~---------------|------------------------|G||------------------------|------------------------|D||------------------------|------------------------|A||------------------------|------------------2-----|E||------------------------|---------------------3--|
-------------------------------|--------------------------------|-------------------------------|--------------------------------|-------------------------------|--------------------------------|--------------------4----2-----|------------2-------------------|--------5--4--2-------------4--|--5----2-------5----4--2--------|--2--3-----------2-------------|--------------------------2--3--|
--------------------------------|----------------------------|--------------------------------|----------------------------|--------------------------------|----------------------------|-----------5--4--2--------------|-----------------------2----|--2--4--5-----------------------|--5--4--2-------------------|----------------------3----5----|-------------2----3---------|
------------------3----|----------------------------|-----------------------|--2-------------------------|-----------------------|----------------------------|-----------------------|----------------------------|-----------------------|-----------------5--7--5----|-----------------------|-----------5--7-------------|
-------------------------------|--------------------------------|-------------------------------|-----------------------------3--|----------------------------2--|--4--2-----2-----------2--4-----|--------7b---4--2-----2--4-----|--------4--------2--4-----------|--5--7-------------5-----------|--------------5-----------------|-------------------------------|--------------------------------|
--------5--2------------------|------------2--2------------|--5--3--------3---------------|----------------------------|-------------------4--4--4----|--------------------4-------|------------------------------|--4----5---------------4----|------------------------------|----------------------------|------------------------------|----------------------------|
------10--9--7-----------------|---------------------------|-------------------|----------------8--7-----------|---------------------------|-------------------|----------------------7--6--4--|--------------1~-----------|--------------9b---|-------------------------------|--5--4---------------------|-------------------|-------------------------------|--------5--4---------------|-------------------|-------------------------------|---------------------------|-------------------|
--------------------|---------------------------|----------------------|--------------------|---------------------------|----------------------|--9~-----------9----|--9/-11----9h11h9-6~-------|----------------6-----|--------------------|---------------------------|------7----9-------9--|--------------------|---------------------------|----------------------|--------------------|---------------------------|----------------------|
------------------------|----------------------------|----------------------|------------------------|----------------------------|----------------------|------------------------|----------------------------|----------------------|--7h9h7-----------------|--7----9--7--6h7h6----------|----------------------|------------------7--9--|-------------------9--7--7b-|----------------7--9--|------------------------|----------------------------|------------7h9-------|
------------------------------------------|-----------------------------|------------------------------------------|-----------------------------|------------------------------------------|--4--2r----------------------|--7--9--7--6h7h6--------------------------|----------4--2r--------------|-----------------9--7--9------------------|------------------4-----2~---|------------------------------------------|---------------------5-------|
----------------------|-----------------------------|----------------------|---------------10------------|--11------------11r---|----11h-9--------------------|----------------------|-----------11----------------|----------------------|-----------------------------|----------------------|-----------------------------|
----------9--10----9----7----7h9h7-----|--------------------------|--10h-12---------------------------10--|---------------9--10--12--|---------------------------------------|----------9-11------------|---------------------------------------|--------------------------|---------------------------------------|--------------------------|---------------------------------------|--------------------------|
----------------------------------|---------------------------------|--10--9h10h9----------------------|--9--10--12h10h9--10--12--10--9--|-------------11--9--11~-----------|---------------------------------|----------------------------------|---------------------------------|----------------------------------|---------------------------------|----------------------------------|---------------------------------|
---------12~-----------------|-----------------------------|------------------|--10-------------------------|-----------------------------|------------------|------9----------------------|--4--2r----------------------|------------------|-----------------------------|----------4--2r--------------|------------------|-----------------------------|------------------4-----2~---|------------------|-----------------------------|---------------------5-------|------------------|
Acoustic guitar 2 introE||-----------------------------|-------------------------------|B||-----------------------------|-------------------------------|G||--------7~---6-----4---------|--7--6-----4--------4--6--7----|D||-----4----------5-------4----|--------5-----4--4-------------|A||--5--------------------------|-------------------------------|E||-----------------------------|-------------------------------|
------------------------------|-------------------------------|------------------------------|--------------8----7--5-----5--|--6-----4---------7--6-----4--|--------4--6-------------7-----|-----5-------4----------5-----|--4--5-------------------------|------------------------------|-------------------------------|------------------------------|-------------------------------|
-----------------------------|--------------------------------|---------8--7--5-----5-------|-----------8--7--5--------------|--6---------------7-----6----|--4--6--7-----------7--4--6--4--|-----------------------------|--------------------------------|-----------------------------|--------------------------------|-----------------------------|--------------------------------|
--------------------------------|---------------------------|--8-----7--5--------------------|---------------------------|-----4--------6--4--------------|-----------7--7b-7---------|--------------------5--4--2-----|--5-------------------7----|-----------------------------4--|---------------------------|--------------------------------|---------------------------|
-------------------------10------|--7------------------------------|-------10--7-----7-----------10--|-----7--10-----7-----------------|--------------9-----7------------|------------9-----7--9--------7--|--9------------------------------|------------------------9--9-----|---------------------------------|---------------------------------|---------------------------------|---------------------------------|
-----------------7--5--------|------------------------------|-----------------------7--5--|-----7-------7----------------|--7--7--7b-------------------|--------7-------7--6--7--4----|-----------------------------|--4---------------------------|-----------------------------|------------------------------|-----------------------------|------------------------------|
--10--9--7-----------------------|---------------------------|------------8--7--------0--------|---------------------------|------------------7--6-----0-----|---------------------------|------------------------------4--|--0------------------------|---------------------------------|-----4--2------------------|---------------------------------|-----------3--2~-----------|
D E F#m G ------------------|--2----------------|--0--------2--------|----------3--------|------------------|--3----------------|--0--------2--------|----------3--------|------------------|--2----------------|--1--------2--------|----------4--------|------------------|--0----------------|--2--------4--------|----------5--------|------------------|--0----------------|--2--------4--------|----------5--------|------------------|-------------------|--0--------2--------|----------3--------|
F#m A E F#m --2----------------|--5--------0------2--|------------------|--2----------------|--5--------0------2--|------------------|--2----------------|--6--------1------2--|------------------|--4----------------|--7--------2------4--|------------------|--4----------------|--7--------2------4--|------------------|--2----------------|--5--------0------2--|------------------|
A E D --5------0------2------------------|-----------------------------|--5------0------3------------------|-----------------------------|--6------1------2------------------|-----------------------------|--7------2------0------------------|--4--2r----------------------|--7------2------0------------------|----------4--2r---0----------|--5------0-------------------------|---------------------2--4~---|
D E F#m G F#m --2----------------|--0--------2------------|------3--------2----|--3----------------|--0--------2------------|------3--------2----|--2----------------|--1--------2------------|------4--------2----|--0----------------|--2--------4------------|------5--------4----|--0----------------|--2--------4------------|------5--------4----|-------------------|--0--------2------------|------3--------2----|
A E F#m A E --------------5----|----0------2------------|----------5------0--|--------------5----|----0------2------------|----------5------0--|--------------6----|----1------2------------|----------6------1--|--------------7----|----2------4------------|----------7------2--|--------------7----|----2------4------------|----------7------2--|--------------5----|----0------2------------|----------5------0--|
D ------2------------------|-----------------------------|------------------|------3------------------|-----------------------------|------------------|------2------------------|-----------------------------|------------------|------0------------------|--4--2r----------------------|------------------|------0------------------|----------4--2r---0----------|------------------|-------------------------|---------------------2--4~---|------------------|
Lead guitar
------------------------|-----------------------|------------------|------------------------|-----------------------|------------------|------------------------|------------------9b---|------------------|------------------------|-----------------------|------------------|------------------------|-----------------------|------------------|------------------------|-----------------------|------------------|
------------|--------------------|------------------------------|------------|--------------------|------------10----12----10----|------------|--9b-9~-------------|------------------------------|------------|--------------------|------------------------------|------------|--------------------|------------------------------|------------|--------------------|------------------------------|
--------------------------|-------------------------|--------------------|--12------------10--12h10-|--9----10----12/---14----|--12----------------|--------------------------|-------------------------|--------------------|--------------------------|-------------------------|--------------------|--------------------------|-------------------------|--------------------|--------------------------|-------------------------|--------------------|
--------------------------------|--------------------|----14--12--14/-17--17--14--12--|--14----------------|--------------------------------|--------------------|--------------------------------|--------------------|--------------------------------|--------------------|--------------------------------|--------------------|
--------------------------------|--------------------|--------------------------------|--------------------|------14--14--13--14h13-11------|--11----------------|----------------------------12--|--------------------|--------------------------------|--------------------|--------------------------------|--------------------|
------------------------------|--------------------|------------------------------|--------------------|--------11------13r---11------|--11~---------------|----12------12------------12--|--------------------|------------------------------|--------------------|------------------------------|--------------------|
-------------------------------------|--------------------|--------10------12b-12b-10h12h10-----|--10----------------|----11------11-------------------11--|--------------------|-------------------------------------|--------------------|-------------------------------------|--------------------|-------------------------------------|--------------------|
-------------------------------------|----------------------|----12--10--12/-14--14--12h14h12/10--|------------12b-------|-------------------------------------|--11------------------|-------------------------------------|----------------------|-------------------------------------|----------------------|-------------------------------------|----------------------|
---------------------|-----------------------|--------------------|--12--------9--------|--10--9----------------|----------------2/3-|---------------------|---------11~-----------|--------------------|---------------------|-----------------------|--------------------|---------------------|-----------------------|--------------------|---------------------|-----------------------|--------------------|
--5-------7-------9-------10--------|----2-2/3---3-3/5---5-5/7----9-9/10-|------------------------------------|------------------------------------|------------------------------------|------------------------------------|
--12----------14----------16----------17----------|----------------19r---|-----10-10/12----12-12/14----14-14/15----15-15/17-|--19~-----------------|--------------------------------------------------|----------------------|--------------------------------------------------|----------------------|--------------------------------------------------|----------------------|--------------------------------------------------|----------------------|
----------------------|----------------------------|------------------------|--17r-----------------|--------------------14------|------------------------|------------16~-------|------14--14--16--------16--|--14~-------------------|----------------------|----------------------------|----------------14--16--|----------------------|----------------------------|------------------------|----------------------|----------------------------|------------------------|
---------------------------------------|---------------------------------------|--14~---16--14--13h14h13---------14h16-|-------------------------16--14--------|---------------------------------------|---------------------------------------|
--14h17-------------------------------------------|--------------14h17-------------------------------|--------------------------14h16-------------14h16-|--------14h16----------------------------14-------|--------------------14h16-------------16----------|--------------------------------14h17-------------|
-------------------------------------|--------------------|-------------------------------17b---|--------19r---------|--14--16--14--13h14h13---------------|--------------------|-----------------------16--14--------|--------------------|-------------------------------------|--------------------|-------------------------------------|--------------------|
----------------------|--------------------------|----------------------|--17~-------------14--|--16r-----14--------------|----------------------|----------------------|-------------14-16~-------|--------14--14r-------|----------------------|--------------------------|----------------------|----------------------|--------------------------|----------------------|----------------------|--------------------------|----------------------|
--------------------------|---------------------------------------|--------------------------|---------------------------------------|--13--14------------------|--------14----16--14--13h14h13---------|--------------------------|--14-16------------------------16--14--|--------------------14-16-|---------------------------------------|--------------------------|---------------------------------------|
--17r---14-17-14----------------14----|-----------------17-17b------------17-|--------------------------------------|--------------------------------------|--------------------------------------|--------------------------------------|
--------------------------------------------|------------------------------|--14----------------------------------------|------------------------------|------17--16--17--16--17--16--14--16--16r---|--14--------14----14----------|--------------------------------------------|------16-------16-------------|--------------------------------------------|------------------------------|--------------------------------------------|------------------------------|
--------------------------|--------------------------|--------------------------|--------------------------|--------------------------|--------------------------|--12------14--12----------|--------------------------|--------------------14----|------12------10--10--12--|--------------------------|--------------------------|
---------------------------|------------------|------------------------------|---------------------------|------------------|------------------------------|---------------------------|------------------|------------------------------|--9------10--9--10-9-------|------------------|--12------13--12--13-12-------|---------------------12----|------------------|------------------------15----|---------------------------|------------------|------------------------------|
------------------------|------------------------------|---------------------|------------------------|------------------------------|---------------------|------------------------|------------------------------|---------------------|------------------12----|--13------14--13--14-13-11----|---------------------|------13------15--------|------------------------------|------10/-------0----|------------------------|------------------------------|---------------------|
--------------------------|--------------------------|--------------------------|--------------------------|--------------------------|--------------------------|--12------14--12----------|--------------------------|--------------------14----|------12------10--10--12--|--------------------------|--------------------------|
---------------------------|------------------|------------------------------|---------------------------|------------------|------------------------------|---------------------------|------------------|------------------------------|--9------10--9--10-9-------|------------------|--12------13--12--13-12-------|---------------------12----|------------------|------------------------15----|---------------------------|------------------|------------------------------|
------------------------|------------------------------|------------------|------------------------|------------------------------|------------------|------------------------|------------------------------|------------------|------------------12----|--13------14--13--14-13-11----|------------------|------13------15--------|------------------------------|------------------|------------------------|------------------------------|------------------|
-------------------|------------------|---------------------------|-------------------|------------------|---------------------------|-------------------|------------------|--------9-----------11-----|-------------------|------------------|-----7-----7-----7------7--|--9----------------|------------------|--9-----------9------------|-------------------|------------------|---------------------------|
--------------24--------|----------------10-14/17-17h14-------------------|--------------24--------|-------------10----------------15----------------|--------6---------------|----------11----------------------14-------------|-----7-----7------------|-------12----------------------------16----------|--9---------------------|--9h12----------------------------------17-12----|------------------------|----------------------------------------------14-|
--------------------12-16/14h9-----------------|-----------------12------------10--------------|--------------13------------------11-----------|-----------14------------------------11--------|--------14------------------------------12-9---|--12h16--------------------------------------9-|
------------------9-9/7----------------|--------------2-5/9h5h9h5---------|---------------10-------8--------------|------------2-------------7-------|------------11------------7------------|----------2-----------------6-----|---------11-----------------9----------|--------4---------------------7---|----9h12----------------------10-5/2---|------4-------------------------9-|--9----------------------------------3-|--2h5-----------------------------|
--------------5-9h7----------------|----------------------------------|------------5-------9--------------|----------------------------------|----------6-----------9------------|----------6-7-6---6---------------|--------7---------------9----------|----6-7-9-------9---9-7-6-7-6-----|--9h4h7-------------------11-7-9-7-|--9---------------------------9-7-|-----------------------------------|----------------------------------|
------------5-7h4-------------------|----------5-------5---------------7-|--------6-----------4-----------7---|------7---------------6-------7-----|--4h7-------------------7-5h9-------|------------------------------------|
--5-10/17h14----------14-17h14-----------------------|-------------15----15----------15--------------------|----------------14----------------14-----------------|-------------------------------------16--------------|----------------------------------------17-12/9----0-|------------------------------------------------10---|
----------------10-14/17-17h14-------------------|-------------10----------------15----------------|----------11----------------------14-------------|-------12----------------------------16----------|--9h12----------------------------------17-12----|----------------------------------------------14-|
--------------------12-16/14h9-----------------|-----------------12------------10--------------|--------------13------------------11-----------|-----------14------------------------11--------|--------14------------------------------12-9---|--12h16--------------------------------------9-|
------------------9-9/7----------------|--------------2-5/9h5h9h5---------|---------------10-------8--------------|------------2-------------7-------|------------11------------7------------|----------2-----------------6-----|---------11-----------------9----------|--------4---------------------7---|----9h12----------------------10-5/2---|------4-------------------------9-|--9----------------------------------3-|--2h5-----------------------------|
--------------5-9h7----------------|----------------------------------|------------5-------9--------------|----------------------------------|----------6-----------9------------|----------6-7-6---6---------------|--------7---------------9----------|----6-7-9-------9---9-7-6-7-6-----|--9h4h7-------------------11-7-9-7-|--9---------------------------9-7-|-----------------------------------|----------------------------------|
------------5-7h4-------------------|----------5-------5---------------7-|--------6-----------4-----------7---|------7---------------6-------7-----|--4h7-------------------7-5h9-------|------------------------------------|
--5-10/22h17----------------17h14---------------------|-------------------|-------------19----------19-------15------------------|-------------------|----------------19----19-------------14---------------|-------------------|-------------------19-------------------16------------|-------------------|-------------------------------------------17-11r-----|------9------------|------------------------------------------------------|-------------------|
------------------|--------------------|------------------|------------------|----------------17~-|------------------|------------------|--------------------|------------------|------------------|--------------------|------------------|------------------|--------------------|------------------|------------------|--------------------|------------------|
----------------------|----------------------|--------------------17b---|--------17r-------19--|--20------------19r---|--17----19----20----------|----------------------|----------------------|--------------------------|----------------------|----------------------|--------------------------|----------------------|----------------------|--------------------------|----------------------|----------------------|--------------------------|
--17r---------------|--19--17--22----22----19-17-24--|----19--------------|--------------------|--------------------------------|--------------------|--------------------|--------------------------------|--------------------|--------------------|--------------------------------|--------------------|--------------------|--------------------------------|--------------------|--------------------|--------------------------------|--------------------|
--------17------------------|------------------|---------------12r-------12---|----19------17b-------------|------------------|--------12-15--------15-------|--------------------16--19--|------------------|--12b-------------------------|----------------------------|------------------|------------------------------|----------------------------|------------------|------------------------------|----------------------------|------------------|------------------------------|
------------------|--------------------------------|------------------|------------------|--17r---19--22--22----19-17--17b|------------------|------------------|--------------------------------|------------------|------------------|--------------------------------|------------------|------------------|--------------------------------|------------------|------------------|--------------------------------|------------------|
----------------------------------|----------------------|--------------------|--19--17--19--22---22----19-17-15-|---------17b-------17r|--------------------|----------------------------------|----------------------|----------16b-------|----------------------------------|----------------------|--------------------|----------------------------------|----------------------|--------------------|----------------------------------|----------------------|--------------------|
--21~---------------|------------------|------------------|------------------||--------------------|------------------|------------------|------------------||--------------------|------------------|------------------|------------------||--------------------|------------------|------------------|------------------||--------------------|------------------|------------------|------------------||--------------------|-
Tap to rate this tab
 
# A B C D E F G H I J K L M N O P Q R S T U V W X Y Z