Decapitated – Babylons Pride tab

Band:  Decapitated
Album: Nihility
Song:  Babylon's Pride

.  - palm mute           /  - slide up to
\  - slide down to       ~  - vibrato
h  - hammer on           b  - Bend
p  - pull off            Suffixes for bend
t  - tap                 f  - full bend    h - half bend
ph - pinched harmonic    q  - quarter bend t - tap bend
*  - see comment         ^  - Hold bend    r release bend
x  - Stuccatto           ~  - vibrato bend
,  - slight palm mute    () - ghost note, sustained note
"  - tremolo note        <> - Trill

Tunning D G D F A D [Low to high]


|Intro|

D||-----------------------|-------------------------------|A||-----------------------|-------------------------------|F||-----------------------|-------------------------------|C||-----------------------|-------------------------------|G||---------7----8~-------|--7-7-7-7-7-7-7-7-6-6-6-6-6----|D||--0-0-0----------------|--5-5-5-5-5-5-5-5-4-4-4-4-4----|
|--------------------------------|----------------------------------||--------------------------------|----------------------------------||*-------------------------------|----------------------------------||*-------------------------------|----------------------------------||---7-7-7--4h-6--1-1-1-1---------|----------------------------------||------------------------0-0-0-0-|--0-0-0-0-4-4-4-4-3-3-3-3-6-6-6-6-|
-------------------------------|----------------------------|-------------------------------|----------------------------|-------------------------------|----------------------------|-------------------------------|----------3------------6----|--7-7-7--4h-6--1-1-1-1---------|----------3------------4----|-----------------------0-0-0-0-|--0-0-0-0-1----0-0-0-0-4----|
-------------------------------|----------------------------------|-------------------------------|----------------------------------|-------------------------------|----------------------------------|-------------------------------|----------------------------------|--7-7-7--4h-6--1-1-1-1---------|----------------------------------|-----------------------0-0-0-0-|--0-0-0-0-4-4-4-4-3-3-3-3-6-6-6-6-|
-------------------------------|-----------------------------------||-------------------------------|-----------------------------------||-------------------------------|----------------------------------*||-------------------------------|----------------------------------*||--7-7-7--4h-6--1-1-1-1---------|-----------------------------------||-----------------------0-0-0-0-|--0-0-0-0-1-1-1-1-4-4-4-4-3-3-3-3--||
----------------------------------|------------------------|----------------------------------|------------------------|----------------------------------|------------------------|----------------------------------|------------------------|----------------------------------|--2----3----6--2--5/-6--|--0-0-0-0-1-1-1-1-4-4-4-4-3-3-3-3-|--0----1----4--0--3/-4--|
|Verse|----------------------|------||---------------------------|----------------------|------||---------------------------|----------------------|------||*--------------------------|----------------------|------||*--------------------------|--2----3----6----5----|------||---2--2--6--2--5/-6--2--2--|--0----1----4----3----|------||---0--0--4--0--3/-4--0--0--|
------------------------|--------------------------|------------------------||------------------------|--------------------------|------------------------||------------------------|--------------------------|-----------------------*||------------------------|--------------------------|-----------------------*||--2----3----6--2--5/-6--|--5/-6--2--2--2--2--3--6--|--5/-6--2--2--2---------||--0----1----4--0--3/-4--|--3/-4--0--0--0--0--1--4--|--3/-4--0--0--0---------||
--------------------------|------------------------|--------------------------|--------------------------|------------------------|--------------------------|--------------------------|------------------------|--------------------------|--------------------------|------------------------|--------------------------|--2--2--6--2--5/-6--2--2--|--2----3----6--2--5/-6--|--5/-6--2--2--2--2--3--6--|--0--0--4--0--3/-4--0--0--|--0----1----4--0--3/-4--|--3/-4--0--0--0--0--1--4--|
-----------------------|--------------------------|------------------------|-----------------------|--------------------------|------------------------|-----------------------|--------------------------|------------------------|-----------------------|--------------------------|------------------------|--5/-6--2--2--2--------|--2--2--6--2--5/-6--2--2--|--2----3----6--2--5/-6--|--3/-4--0--0--0--------|--0--0--4--0--3/-4--0--0--|--0----1----4--0--3/-4--|
--------------------------|-------------------------|------|--------------------------|-------------------------|------|--------------------------|-------------------------|------|--------------------------|-------------------------|------|--5/-6--2--2--2--2--3--6--|--5/-6--2--2--2--2--2----|------|--3/-4--0--0--0--0--1--4--|--3/-4--0--0--0--0--0----|------|
|---------------------------|------------------------||---------------------------|------------------------||*--------------------------|------------------------||*--------------------------|------------------------||---2--2--6--2--5/-6--2--2--|--2----3----6--2--5/-6--||---0--0--4--0--3/-4--0--0--|--0----1----4--0--3/-4--|
--------------------------|------------------------||--------------------------|------------------------||--------------------------|-----------------------*||--------------------------|-----------------------*||--5/-6--2--2--2--2--3--6--|--5/-6--2--2--2---------||--3/-4--0--0--0--0--1--4--|--3/-4--0--0--0---------||
---------------------------|------------------------|--------------------------|---------------------------|------------------------|--------------------------|*--------------------------|------------------------|--------------------------|*--------------------------|------------------------|--------------------------|---2--2--6--2--5/-6--2--2--|--2----3----6--2--5/-6--|--5/-6--2--2--2--2--3--6--|---0--0--4--0--3/-4--0--0--|--0----1----4--0--3/-4--|--3/-4--0--0--0--0--1--4--|
------------------------||-------------------|----------|------------------------||-------------------|----------|-----------------------*||-------------------|----------|-----------------------*||-------------------|----------|--5/-6--2--2--2---------||--2----------------|----------|--3/-4--0--0--0---------||--0----------------|----------|
|------------------------------|----------------------------------||------------------------------|----------------------------------||*-----------------------------|----------------------------------||*-----------------------------|----------------------------------||---2--3--2--------------------|----------------------------------||---0--1--0----6-6-6-6-5-5-6-6-|--5-5-5-5-1-1-1-1-2-2-2-2-4-4-4-4-|
--------------------------|----------------------------------|--------------------------|----------------------------------|--------------------------|----------------------------------|--------------------------|----------------------------------|--2----2--3--2------------|----------------------------------|--0----0--1--0----5-5-5-5-|--4-4-5-5-7-7-7-7-5-5-7-7-8-8-8-8-|
-----------------------------|----------------------------------|-----------------------------|----------------------------------|-----------------------------|----------------------------------|-----------------------------|----------------------------------|--2--3--2--------------------|----------------------------------|--0--1--0----6-6-6-6-5-5-6-6-|--5-5-5-5-1-1-1-1-2-2-2-2-4-4-4-4-|
--------------------------|-----------------------------------||--------------------------|-----------------------------------||--------------------------|----------------------------------*||--------------------------|----------------------------------*||--2----2--3--2------------|-----------------------------------||--0----0--1--0----5-5-5-5-|--4-4-5-5-7-7-7-7-5-5-7-7-8-8-8-8--||
|Bridge| 3x--------------------------------|-----------------------------------||--------------------------------|-----------------------------------||*-------------------------------|----------------------------------*||*-------------------------------|----------------------------------*||--------7-7-7-7-7-7-7-7-6-6-6-6-|--6-6-6-6-5-5-5-5-5-5-5-5-4-4-4-4--||---0----------------------------|-----------------------------------||
------------------------------|----------------------------------|------------------------------|----------------------------------|*-----------------------------|----------------------------------|*-----------------------------|----------------------------------|---2--3--2--------------------|----------------------------------|---0--1--0----6-6-6-6-5-5-6-6-|--5-5-5-5-1-1-1-1-2-2-2-2-4-4-4-4-|
3x--------------------------|-----------------------------------||--------------------------|-----------------------------------||--------------------------|----------------------------------*||--------------------------|----------------------------------*||--2----2--3--2------------|-----------------------------------||--0----0--1--0----5-5-5-5-|--4-4-5-5-7-7-7-7-5-5-7-7-8-8-8-8--||
-------------------------------|------------------------|-------------------------------|------------------------|*------------------------------|------------------------|*------------------------------|------------------------|-------------------------------|------------------------|---0-0-0-0-4--0--3/-4--0-0-0-0-|--0----1----4--0--3/-4--|
------------------------------|--------------------------||------------------------------|--------------------------||------------------------------|-------------------------*||------------------------------|-------------------------*||------------------------------|--------------------------||--3/-4--0-0-0-0-0-0-0-0-1--4--|--3/-4--0-0-0-0-0---------||
|Intro as Bridge|-------------------------------|----------------------------------|-------------------------------|----------------------------------|-------------------------------|----------------------------------|-------------------------------|----------------------------------|--7-7-7--4h-6--1-1-1-1---------|----------------------------------|-----------------------0-0-0-0-|--0-0-0-0-4-4-4-4-3-3-3-3-6-6-6-6-|
-------------------------------|----------------------------|-------------------------------|----------------------------|-------------------------------|----------------------------|-------------------------------|----------3------------6----|--7-7-7--4h-6--1-1-1-1---------|----------3------------4----|-----------------------0-0-0-0-|--0-0-0-0-1----0-0-0-0-4----|
-------------------------------|----------------------------------|-------------------------------|----------------------------------|-------------------------------|----------------------------------|-------------------------------|----------------------------------|--7-7-7--4h-6--1-1-1-1---------|----------------------------------|-----------------------0-0-0-0-|--0-0-0-0-4-4-4-4-3-3-3-3-6-6-6-6-|
-------------------------------|----------------------------------|-------------------------------|----------------------------------|-------------------------------|----------------------------------|-------------------------------|----------------------------------|--7-7-7--4h-6--1-1-1-1---------|----------3-3-3-3-6-6-6-6-5-5-5-5-|-----------------------0-0-0-0-|--0-0-0-0-1-1-1-1-4-4-4-4-3-3-3-3-|
------------------------|----------------------|------|------------------------|----------------------|------|------------------------|----------------------|------|------------------------|----------------------|------|--2----3----6--2--5/-6--|--2----3----6----5----|------|--0----1----4--0--3/-4--|--0----1----4----3----|------|
|Verse||---------------------------|------------------------||---------------------------|------------------------||*--------------------------|------------------------||*--------------------------|------------------------||---2--2--6--2--5/-6--2--2--|--2----3----6--2--5/-6--||---0--0--4--0--3/-4--0--0--|--0----1----4--0--3/-4--|
3x--------------------------|------------------------||------------------|--------------------------|------------------------||------------------|--------------------------|-----------------------*||------------------|--------------------------|-----------------------*||------------------|--5/-6--2--2--2--2--3--6--|--5/-6--2--2--2---------||------------------|--3/-4--0--0--0--0--1--4--|--3/-4--0--0--0---------||------------------|
|Mid Section||------------------------------|----------------------------------||------------------------------|----------------------------------||*-----------------------------|----------------------------------||*-----------------------------|----------------------------------||---2--3--2--------------------|----------------------------------||---0--1--0----6-6-6-6-5-5-6-6-|--5-5-5-5-1-1-1-1-2-2-2-2-4-4-4-4-|
3x--------------------------|-----------------------------------||--------------------------|-----------------------------------||--------------------------|----------------------------------*||--------------------------|----------------------------------*||--2----2--3--2------------|-----------------------------------||--0----0--1--0----5-5-5-5-|--4-4-5-5-7-7-7-7-5-5-7-7-8-8-8-8--||
------------------|----------------------------------|-----------------------|------------------|----------------------------------|-----------------------|------------------|----------------------------------|-----------------------|--4---------------|----------------------------------|--4---------------4----|--2----2--3--2----|--5-5-5-5-5-5-5-5-4-4-4-4---------|--2----2--3--2----2----|--2----2--3--2----|--------------------------2-2-2-2-|--2----2--3--2----2----|
----------------------------------||-------------------|----------------------------------||-------------------|----------------------------------||*------------------|----------------------------------||*--4---------------|--5-5-5-5-5-5-5-5-4-4-4-4---------||---2----2--3--2----|--------------------------2-2-2-2-||---2----2--3--2----|
----------------------------------|-----------------------|----------------------------------|-----------------------|----------------------------------|-----------------------|----------------------------------|--4---------------4----|--5-5-5-5-5-5-5-5-4-4-4-4---------|--2----2--3--2----2----|--------------------------2-2-2-2-|--2----2--3--2----2----|
2x-----------------------------------||------------------------|-----------------------------------||------------------------|----------------------------------*||*-----------------------|----------------------------------*||*--4---------------4----|--5-5-5-5-5-5-5-5-4-4-4-4----------||---2----2--3--2----2----|--------------------------2-2-2-2--||---2----2--3--2----2----|
3x-----------------------------------||--------------------------------|-----------------------------------||--------------------------------|----------------------------------*||*-------------------------------|----------------------------------*||*-------------------------------|--5-5-5-5-5-5-5-5-4-4-4-4----------||--------7-7-7-7-7-7-7-7-6-6-6-6-|--------------------------2-2-2-2--||---0----------------------------|
3x-----------------------------------||------------------------|-----------------------------------||------------------------|----------------------------------*||*-----------------------|----------------------------------*||*--4---------------4----|--6-6-6-6-5-5-5-5-5-5-5-5-4-4-4-4--||---2----2--3--2----2----|-----------------------------------||---2----2--3--2----2----|
3x|Outro|-----------------------------------||--------------------------------|-----------------------------------||--------------------------------|----------------------------------*||*-------------------------------|----------------------------------*||*-------------------------------|--5-5-5-5-5-5-5-5-4-4-4-4----------||---2----------------------------|--------------------------2-2-2-2--||---0----5-5-5-5-5-5-5-5-5-5-5-5-|
----------------------------------|-------------------------------|----------------------------------|-------------------------------|----------------------------------|-------------------------------|----------------------------------|-------------------------------|----------------------------------|--2----------------------------|--5-5-5-5-5-5-5-5-4-4-4-4-4-4-4-4-|--0----5-5-5-5-5-5-5-5-5-5-5-5-|
3x-----------------------------------||---------------------||-----------------------------------||---------------------||----------------------------------*||---------------------||----------------------------------*||---------------------||-----------------------------------||--------2------------||--5-5-5-5-5-5-5-5-4-4-4-4-4-4-4-4--||--4--4--0------------||
Please rate this tab:
x1.0