Decyfer Down – Best I Can tab ver. 3

Intro:

|------------------------------------------------------||------------------------------------------------------||---5555--555--5555--5555-555-5555---------------------||---5555--555--5555--5555-555-5555---------------------||---0000--222--3333--0000-220-3333---------------------||-----------------------------3333---------------------|
Verse
|------------------------------------------------------||------------------------------------------------------||---5555--555--5555--5555-555-5555---------------------||---5555--555--5555--5555-555-5555---------------------||---0000--222--3333--0000-220-3333---------------------||-----------------------------3333---------------------|
|---------------------------------------------------||---------------------------------------------------||---5555--555--5555--5555-555-5---------------------||---5555--555--5555--5555-555-5---------------------| |---0000--222--3333--0000-220-3---------------------||-----------------------------3---------------------|
Refrain
|----------------------------------------------------------------------||----------------------------------------------------------------------||-------5---------5---------5-----------5--------5---------4---------7-||-----5---5-----5---5-----5---5-------5---5----5---5----2----2-----5---||---3--------2---------0------------------------------0-----------5----||----------------------------------5---------3------------------5------|
Chorus
|----------------------------------------------------------------||----------------------------------------------------------------||---5555--5555--99--77-55-----------just-listen-for--------------||---5555--3333--77--55-33-------------the-timing-----------------||---3333--3333--77--55-33----------------------------------------||---------3333--77--55-33----------------------------------------|
|-------------------------------------------------------||-------------------------------------------------------||---5555--5555--99--77-55--99--77--55-------------------||---5555--3333--77--55-33--77--55--33-------------------||---3333--3333--77--55-33--77--55--33-------------------||---------3333--77--55-33--77--55--33-------------------|
Back To verse Refrain Chorus
Bridge:|------------------------------------------------------||------------------------------------------------------||---9999--7777--5555--99--------7---77-----------------||---7777--5555--3333--77-break--5---55-----------------||---7777--5555--3333--77--------5---55-----------------||---7777--5555--3333--77--------5---55-----------------|
|-----------------------------------------------------||-----------------------------------------------------||---9999--7777------------------5----7777-------------||---7777--5555--0000---0h20-----5--3h5555-------------||---7777--5555--0000---0h20-----3--3h5555-------------||---7777--5555--0000---0h20-----3--3h5555-------------|
Chorus/outro
|-------------------------------------------------------||-------------------------------------------------------||---5555--5555--99--77-55-----------just-listen-for-----||---5555--3333--77--55-33-------------the-timing--------||---3333--3333--77--55-33-------------------------------||---------3333--77--55-33-------------------------------|
|-------------------------------------------------------||-------------------------------------------------------||---5555--5555--99--77-55--99--77--55-------------------||---5555--3333--77--55-33--77--55--33-------------------||---3333--3333--77--55-33--77--55--33-------------------||---------3333--77--55-33--77--55--33-------------------|
|-------------------------------------------------------||-------------------------------------------------------||---5555--5555--99--77-55--99--77--55h77----------------||---5555--3333--77--55-33--77--55--33h55----------------||---3333--3333--77--55-33--77--55--33h55----------------||---------3333--77--55-33--77--55--33h55----------------|
|-------------------------------------------------------||-------------------------------------------------------||---5555--5555--99--77-55--99--77--55-------------------||---5555--3333--77--55-33--77--55--33-------------------||---3333--3333--77--55-33--77--55--33-------------------||---------3333--77--55-33--77--55--33-------------------|
Please rate this tab:
x1.0