Deep Purple - The Well Dressed tab

Artist: Deep Purple
Song: The Well Dressed Guitar (Studio Version)
Album: Rapture Of The Deep (2006)

Part 1E||------------------------------------|---------------------------------------------|B||------6-------5-------6--------8----|-------10---------8---------10---------10----|G||------------------------------------|---------------------------------------------|D||----7---7---7---7---7---7---10---10-|----10----10---10---10---10----10---12----12-|A||--5-------4-------5-------7---------|--8----------7---------8----------9----------|E||------------------------------------|---------------------------------------------|
------------------------------------------------|--------------------------------------------------|-------11---------10----------11----------13----|--------15----------17----------15----------14----|------------------------------------------------|--------------------------------------------------|----12----12---12----12----12----12----15----15-|-----15----15----15----15----14----14----14----14-|-10----------9----------10----------12----------|--13----------13----------12----------12----------|------------------------------------------------|--------------------------------------------------|
------------------------------------|---------------------------------------------|------6-------5-------6--------8----|-------10---------8---------10---------10----|------------------------------------|---------------------------------------------|----7---7---7---7---7---7---10---10-|----10----10---10---10---10----10---12----12-|--5-------4-------5-------7---------|--8----------7---------8----------9----------|------------------------------------|---------------------------------------------|
-------------------------------------------------|--------11---------10----------11----------13----|-------------------------------------------------|-----12----12---12----12----12----12----15----15-|--10----------9----------10----------12----------|-------------------------------------------------|
--------------------------------------------------|-----------------------|--------15----------17----------18----------17----|--17b~-----------------|--------------------------------------------------|-----------------------|-----15----15----15----15----17----17----17----14-|-----------------------|--13----------13----------15----------15----------|-----------------------|--------------------------------------------------|-----------------------|
Part 2----------------------------------|--------------------|----------------------------------|--------------------|--------------------2-3-5-3-2-----|--------------------|--------------2-3-5-----------5---|--------------------|--------1-3-5-------------------3-|--5~----------------|--1-3-5---------------------------|--------------------|
----------------------------------|--------------------|----------------------------------|--------------------|--------------------3-5-7-5-3-----|--------------------|--------------3-5-7-----------7-5-|--7~----------------|--------3-5-7---------------------|--------------------|--3-5-6---------------------------|--------------------|
---------------------------------------|-------------------------------------|---------------------------------------|-------------------------------------|-----------------------7-9-10-9-7------|-------------------------------17-19-|----------------7-8-10------------10-8-|--10~-----------------17-19-20-------|---------7-8-10------------------------|-------------17-19-20----------------|--6-8-10-------------------------------|-------------------------------------|
-------------------------------------------------|--17----------18-17-------20-18-17----17-18-20---|-----19-17----------19-17----------19------------|-----------20------------------------------------|-------------------------------------------------|-------------------------------------------------|
--17----------18-17-------20-18-17----22-20-18-17-|--20b~-----------------|-----20-18-17-------20-18----------20-------------|-----------------------|--------------------------------------------------|-----------------------|--------------------------------------------------|-----------------------|--------------------------------------------------|-----------------------|--------------------------------------------------|-----------------------|
[Repeat part 1]
Part 3--------------------------|--------------------------|--------------------------|--------------------------|--------------------------|--------------------------|-----------------------3--|--------------------------|--5--------3-----1--0-----|--5--------3-----1-----0--|-----0--1-----3-----------|-----0--1-----3-----3-----|
--------------------------|--------------------------|--------------------------|--------------------------|--------------------------|--------------------------|-----------------------3--|-----------------3-----5--|--5--------3-----1--0-----|--5--------3--5-----7-----|-----0--1-----3-----------|-----0--1-----------------|
--------------------------|--------------------------|--------------------------|--------------------------|--------------------------|--------------------------|-----------------------3--|--------------------------|--5--------3-----1--0-----|--5--------3-----1-----0--|-----0--1-----3-----------|-----0--1-----3-----3-----|
--------------------------|--------------------------|--------------------------|--------------------------|--------------------------|--------------------------|-----------------------3--|-----------------3-----5--|--5--------3-----1--0-----|--5--------3--5-----7-----|-----0--1-----3-----------|-----0--1-----------------|
--------------------------|-------------------------|-----------6--5-----5--8--|--6-------6--5-----5--6--|--------7--------6--------|-------7--------6--------|-----7--------------------|-------------------------|--5-----------------------|-------------------------|--------------------------|-------------------------|
-----------------------------|--------------------------|--(6)br----6--5--------------|--6--5--6--5--------------|-----------------7--6-----6--|--------------7--6-----6--|-----------------------7-----|--------------------7-----|-----------------------------|--------------------------|-----------------------------|--------------------------|
--------------------------------|--------------9S-10-9------9-10S-12--|------------10--8-----8--10S-11-|--10------10-----------10------------|--7--7--10---------9------------|------10-----------------------------|--------------------------------|-------------------------------------|--------------------------------|-------------------------------------|--------------------------------|-------------------------------------|
--10------10--12S-13-12------12--13S-15-|--13------13--15S-17-15---------|------10-----------------14-------------|------15------------------------|----------------------------------------|--------------------------------|----------------------------------------|--------------------------------|----------------------------------------|--------------------------------|----------------------------------------|--------------------------------|
--20-18-------18------------------------------------|--------22-20----22-20-18-22-20-18-20h-22p-20-18-17-|----------------------------------------------------|----------------------------------------------------|----------------------------------------------------|----------------------------------------------------|
------------------------------------------------------|--20-18-17-18h-20p-18-17-15-18-17-15-17h-18p-17-15-13-|------------------------------------------------------|------------------------------------------------------|------------------------------------------------------|------------------------------------------------------|
------------------------------------------------------|--17-15-13-15h-17p-15-13-11-15-13-11-13h-15p-13-11-10-|------------------------------------------------------|------------------------------------------------------|------------------------------------------------------|------------------------------------------------------|
-----------------------------------------------|--13-11-10-11h-13p-11-10-8-11-10-8-10-11-10----|-----------------------------------------------|-----------------------------------------------|-----------------------------------------------|-----------------------------------------------|
--20-18-------18------------------------------------|--------22-20----22-20-18-22-20-18-20h-22p-20-18-17-|----------------------------------------------------|----------------------------------------------------|----------------------------------------------------|----------------------------------------------------|
------------------------------------------------------|--20-18-17-18h-20p-18-17-15-18-17-15-17h-18p-17-15-13-|------------------------------------------------------|------------------------------------------------------|------------------------------------------------------|------------------------------------------------------|
------------------------------------------------------|--17-15-13-15h-17p-15-13-11-15-13-11-13h-15p-13-11-10-|------------------------------------------------------|------------------------------------------------------|------------------------------------------------------|------------------------------------------------------|
------------------------------------------------|-----------------------|--13-11-10-11h-13p-11-10-8-11-10-8-10-11-10-6-8-|--8br~-----------------|------------------------------------------------|-----------------------|------------------------------------------------|-----------------------|------------------------------------------------|-----------------------|------------------------------------------------|-----------------------|
Part 4--------------------|----1---1---1---1---1---1---3---3-|----5---5---5---5---6---6---8----8-|--L-----------------|----------1---3---1---3---5---3---|--5---6---5---6---8---6---8---10---|--------------------|--2---3---------------------------|-----------------------------------|--------------------|----------------------------------|-----------------------------------|--------------------|----------------------------------|-----------------------------------|--------------------|----------------------------------|-----------------------------------|
----8----8----10----10----13----13----13----13-|-----13----13----13----(13)-------------|--8---10---11----13----15----13----------13----|--17----15----13----17------18----------|-----------------------------------15----------|----------------------------------------|-----------------------------------------------|----------------------------------------|-----------------------------------------------|----------------------------------------|-----------------------------------------------|----------------------------------------|
Part 5--------------------------------------------------|--------------------------------------------15----|--------18----------17----------15----------17----|--------18----------17----------18----------------|-----17----17----17----17----17----17----17----17-|-----17----17----17----17----17----17----17----17-|--15----------15----------15----------15----------|--15----------15----------15----------15----------|--------------------------------------------------|--------------------------------------------------|--------------------------------------------------|--------------------------------------------------|
--------------------------------------------------|--------------------------------------------15----|--------18----------17----------15----------17----|--------18----------17----------18----------------|-----17----17----17----17----17----17----17----17-|-----17----17----17----17----17----17----17----17-|--15----------15----------15----------15----------|--15----------15----------15----------15----------|--------------------------------------------------|--------------------------------------------------|--------------------------------------------------|--------------------------------------------------|
--------13----------12----------------------12----|--------13----------12----------13----------15----|--------------------------------15----------------|--------------------------------------------------|-----14----14----14----14----14----14----14----14-|-----14----14----14----14----14----14----14----14-|--12----------12----------12----------12----------|--12----------12----------12----------12----------|--------------------------------------------------|--------------------------------------------------|--------------------------------------------------|--------------------------------------------------|
--------13----------12----------------------12----|--------13----------12----------13----------15----|--------------------------------15----------------|--------------------------------------------------|-----14----14----14----14----14----14----14----14-|-----14----14----14----14----14----14----14----14-|--12----------12----------12----------12----------|--12----------12----------12----------12----------|--------------------------------------------------|--------------------------------------------------|--------------------------------------------------|--------------------------------------------------|
--------------------------------------------------|--------------------------------------------15----|--------18----------17----------15----------17----|--------18----------17----------18----------------|-----17----17----17----17----17----17----17----17-|-----17----17----17----17----17----17----17----17-|--15----------15----------15----------15----------|--15----------15----------15----------15----------|--------------------------------------------------|--------------------------------------------------|--------------------------------------------------|--------------------------------------------------|
--------------------------------------------------|--------------------------------------------15----|--------18----------17----------15----------17----|--------18----------17----------18----------------|-----17----17----17----17----17----17----17----17-|-----17----17----17----17----17----17----17----17-|--15----------15----------15----------15----------|--15----------15----------15----------15----------|--------------------------------------------------|--------------------------------------------------|--------------------------------------------------|--------------------------------------------------|
--------13----------12----------------------12----|--------13----------12----------13----------15----|--------------------------------15----------------|--------------------------------------------------|-----14----14----14----14----14----14----14----14-|-----14----14----14----14----14----14----14----14-|--12----------12----------12----------12----------|--12----------12----------12----------12----------|--------------------------------------------------|--------------------------------------------------|--------------------------------------------------|--------------------------------------------------|
--------13----------12----------------------12----|--------13----------12----------13----------15----|--------------------------------15----------------|--------------------------------------------------|-----14----14----14----14----14----14----14----14-|-----14----14----14----14----14----14----14----14-|--12----------12----------12----------12----------|--12----------12----------12----------12----------|--------------------------------------------------|--------------------------------------------------|--------------------------------------------------|--------------------------------------------------|
--------------------------------------------------|--------------------------------------------15----|--------18----------17----------15----------17----|--------18----------17----------18----------------|-----17----17----17----17----17----17----17----17-|-----17----17----17----17----17----17----17----17-|--15----------15----------15----------15----------|--15----------15----------15----------15----------|--------------------------------------------------|--------------------------------------------------|--------------------------------------------------|--------------------------------------------------|
--------------------------------------------------|--------------------------------------------15----|--------18----------17----------15----------17----|--------18----------17----------18----------------|-----17----17----17----17----17----17----17----17-|-----17----17----17----17----17----17----17----17-|--15----------15----------15----------15----------|--15----------15----------15----------15----------|--------------------------------------------------|--------------------------------------------------|--------------------------------------------------|--------------------------------------------------|
--------13----------12----------------------12----|--------13----------12----------13----------15----|--------------------------------15----------------|--------------------------------------------------|-----14----14----14----14----14----14----14----14-|-----14----14----14----14----14----14----14----14-|--12----------12----------12----------12----------|--12----------12----------12----------12----------|--------------------------------------------------|--------------------------------------------------|--------------------------------------------------|--------------------------------------------------|
--------13----------12----------------------12----|--------13----------12----------13----------15----|--------------------------------15----------------|--------------------------------------------------|-----14----14----14----14----14----14----14----14-|-----14----14----14----14----14----14----14----14-|--12----------12----------12----------12----------|--12----------12----------12----------12----------|--------------------------------------------------|--------------------------------------------------|--------------------------------------------------|--------------------------------------------------|
--------17----------15----------------------------|--------17----------15----------17----------18----|--------------------------------18----------17----|--------------------------------------------------|-----17----17----17----17----17----17----17----17-|-----17----17----17----17----17----17----17----17-|--15----------15----------15----------15----------|--15----------15----------15----------15----------|--------------------------------------------------|--------------------------------------------------|--------------------------------------------------|--------------------------------------------------|
--------17----------15----------------------------|--------17----------15----------------------------|--------------------------------18----------17----|--------------------------------18----------17----|-----17----17----17----17----17----17----17----17-|-----17----17----17----17----17----17----17----17-|--15----------15----------15----------15----------|--15----------15----------15----------15----------|--------------------------------------------------|--------------------------------------------------|--------------------------------------------------|--------------------------------------------------|
--------13----------12----------------------12----|--------13----------12----------13----------15----|--------------------------------15----------------|--------------------------------------------------|-----14----14----14----14----14----14----14----14-|-----14----14----14----14----14----14----14----14-|--12----------12----------12----------12----------|--12----------12----------12----------12----------|--------------------------------------------------|--------------------------------------------------|--------------------------------------------------|--------------------------------------------------|
--------13----------12----------------------12----|--------13----------12----------13----------15----|--------------------------------15----------------|--------------------------------------------------|-----14----14----14----14----14----14----14----14-|-----14----14----14----14----14----14----14----14-|--12----------12----------12----------12----------|--12----------12----------12----------12----------|--------------------------------------------------|--------------------------------------------------|--------------------------------------------------|--------------------------------------------------|
--20-18-------18------------------------------------|--------22-20----22-20-18-22-20-18-20h-22p-20-18-17-|----------------------------------------------------|----------------------------------------------------|----------------------------------------------------|----------------------------------------------------|
------------------------------------------------------|--20-18-17-18h-20p-18-17-15-18-17-15-17h-18p-17-15-13-|------------------------------------------------------|------------------------------------------------------|------------------------------------------------------|------------------------------------------------------|
------------------------------------------------------|--17-15-13-15h-17p-15-13-11-15-13-11-13h-15p-13-11-10-|------------------------------------------------------|------------------------------------------------------|------------------------------------------------------|------------------------------------------------------|
-----------------------------------------------|--13-11-10-11h-13p-11-10-8-11-10-8-10-11-10----|-----------------------------------------------|-----------------------------------------------|-----------------------------------------------|-----------------------------------------------|
-----5---5---5---5-----------------|----------------------------------|----------------------||--10---8---6---5-----6---6---6---6-|----------------------------------|----------------------||-------------------7---5-----------|----5---5---5---5-----------------|----------------------||---------------------------8---7---|--5---3---2---0-----3---3---3---3-|--3----3----3---------||-----------------------------------|------------------3---1---0-------|--3----3----3---------||-----------------------------------|------------------------------3---|--1----1----1---------||
Tap to rate this tab
 
# A B C D E F G H I J K L M N O P Q R S T U V W X Y Z