Defeated Sanity – Liquifying Cerebral Hemispheres tab

Defeated Sanity - 'Liquifying Cerebral Hemispheres'
Prelude To The Tragedy (2004)
Grindethic Records

            
06/04/05
________________________________________________________________________________
Tab Rhythm is hardly perfect so listen to CD. Any comments can be
e-mailed to above address. This tab is written by the man who wrote the song, so
it is 100% accurate.
________________________________________________________________________________
Tuning C F A# D# G C

                                                      
||--------------------------|-----------------------------------|||--------------------------|-----------------------------------|||-----------------------2--|-----------------------2--------4--|||--------4--2--1-----3-----|--------4--2--1-----3--------2-----|||-----3-----------4--------|-----3-----------4--------1--------|||--1-----------------------|--1--------------------------------|
--------------------------------------------|--------------------------|--------------------------------------------|--------------------------|-----------------------2--------4--------6--|-----------------------2--|--------4--2--1-----3--------2--------4-----|--------4--2--1-----3-----|-----3-----------4--------1--------2--------|-----3-----------4--------|--1-----------------------------------------|--1-----------------------|
--------------------------|--------------------------------------|--------------------------|--------------------------------------|--------4--------6--------|--8--5--------------------------------|-----2--------4--------4--|--------------------------------------|--1--------2--------4-----|--------------------------------------|--------------------------|--------10-10-10-10-10-10-6-6-6-6-6-6-|
--------------------|----------------------|--------------------|------|--------------------|----------------------|--------------------|------|-----1--------------|----------------------|--------------------|------|--------2-----2-----|----------------------|-----2-----1--------|------|-----------3-----3--|-----3----------------|--------4-----2--3--|------|--0-----------------|--4-----4--1--0-0-0-0-|--0-----------------|------|
--------------------|----------------------|--------------------|------|--------------------|----------------------|--------------------|------|-----1--------------|----------------------|--------------------|------|--------2-----2-----|----------------------|-----2-----1--------|------|-----------3-----3--|-----3----------------|--------4-----2--3--|------|--0-----------------|--4-----4--1--0-0-0-0-|--0-----------------|------|
--------------------|----------------------|--------------------|------|--------------------|----------------------|--------------------|------|-----1--------------|----------------------|--------------------|------|--------2-----2-----|----------------------|-----2-----1--------|------|-----------3-----3--|-----3----------------|--------4-----3--2--|------|--0-----------------|--4-----4--1--0-0-0-0-|--0-----------------|------|
--------------------------|--------------------------|--------------------------|--------------------------|--------------------------|--------------------------|--------------2-2-2-2-2-2-|--------------------------|--------------------------|--3-3-3-3-3-3-2-2-2-2-2-2-|--4-4-4-4-4-4-------------|--------------------------|
--------------------------|--------------------------|--------------------|--------------------------|--------------------------|--------------------|--------------------------|--------------2-2-2-2-2-2-|-----1--------------|--4-4-4-4-4-4-------------|--------------------------|--------2-----2-----|--------------2-2-2-2-2-2-|--1-1-1-1-1-1-------------|-----------3-----3--|--------------------------|--------------------------|--0-----------------|
----------------------|--------------------|------|--------------------|----------------------|--------------------|------|--------------------|----------------------|--------------------|------|-----1--------------|----------------------|-----2-----1--------|------|--------2-----2-----|-----3----------------|--------4-----2--3--|------|-----------3-----3--|--4-----4--1--0-0-0-0-|--0-----------------|------|--0-----------------|
----------------------|--------------------|------|--------------------|----------------------|--------------------|------|--------------------|----------------------|--------------------|------|-----1--------------|----------------------|-----2-----1--------|------|--------2-----2-----|-----3----------------|--------4-----2--3--|------|-----------3-----3--|--4-----4--1--0-0-0-0-|--0-----------------|------|--0-----------------|
----------------------|--------------------|------|--------------------------|----------------------|--------------------|------|--------------------------|----------------------|--------------------|------|--------------------------|----------------------|-----2-----1--------|------|--------------2-2-2-2-2-2-|-----3----------------|--------4-----3--2--|------|--------------------------|--4-----4--1--0-0-0-0-|--0-----------------|------|--4-4-4-4-4-4-------------|
--------------------------|--------------------------|--------------------------|--------------------------|--------------------------|--------------------------|--------------------------|--4-4-4-4-4-4-------------|--3-3-3-3-3-3-2-2-2-2-2-2-|--------------2-2-2-2-2-2-|--------------------------|--------------------------|
--------------------------|--------------------|----------------------|--------------------------|--------------------|----------------------|--------------2-2-2-2-2-2-|-----1--------------|----------------------|--------------------------|--------2-----2-----|----------------------|--1-1-1-1-1-1-------------|-----------3-----3--|-----3----------------|--------------------------|--0-----------------|--4-----4--1--0-0-0-0-|
--------------------|------|----------------------------------|--------------------|------|----------------------------------|--------------------|------|----------------------------------|-----2-----1--------|------|------------------3-3-3-3-5-5-5-5-|--------4-----2--3--|------|--2-2-2-2-2-2-2-2-----------------|--0-----------------|------|----------------------------------|
----------------------------------|----------------------------------|----------------------------------|----------------------------------|----------------------------------|----------------------------------|----------6-6-6-6-3-3-3-3---------|------------------3-3-3-3-5-5-5-5-|--6-6-6-6-----------------3-3-3-3-|--2-2-2-2-2-2-2-2-----------------|----------------------------------|----------------------------------|
----------------------------------|----------------------------------|----------------------------------|----------------------------------|----------------------------------|----------------------------------|----------6-6-6-6-3-3-3-3---------|------------------3-3-3-3-5-5-5-5-|--6-6-6-6-----------------3-3-3-3-|--2-2-2-2-2-2-2-2-----------------|----------------------------------|----------------------------------|
--------------------|------------------------------|--------------|--------------------|------------------------------|--------------|-----5--4-----4--3--|------------------------------|--------------|-----------5--------|------------------------------|--------------|--6-----------------|------------------------------|--6--3--5--4--|--------------------|--4-4-4-4-4-4-5--4--3-3-3--3--|--------------|
----------------------------------|----------------------------------|----------------------------------|----------------------------------|----------------------------------|----------------------------------|------------------3-3-3-3-5-5-5-5-|----------6-6-6-6-3-3-3-3---------|--2-2-2-2-2-2-2-2-----------------|--6-6-6-6-----------------3-3-3-3-|----------------------------------|----------------------------------|
----------------------------------|----------------------------------|----------------------------------|----------------------------------|----------------------------------|----------------------------------|------------------3-3-3-3-5-5-5-5-|----------6-6-6-6-3-3-3-3---------|--2-2-2-2-2-2-2-2-----------------|--6-6-6-6-----------------3-3-3-3-|----------------------------------|----------------------------------|
----------------------------------|--------------------|----------------------------------|--------------------|----------------------------------|-----5--4-----4--3--|------------------3-3-3-3-5-5-5-5-|-----------5--------|--2-2-2-2-2-2-2-2-----------------|--6-----------------|----------------------------------|--------------------|
------------------------------|--------------|------------------------------|--------------|------------------------------|--------------|------------------------------|--------------|------------------------------|--6--3--5--4--|--4-4-4-4-4-4-5--4--3-3-3--3--|--------------|
----------------------------------|----------------------------------|----------------------------------|----------------------------------|----------------------------------|----------------------------------|------------------3-3-3-3-5-5-5-5-|----------6-6-6-6-3-3-3-3---------|--2-2-2-2-2-2-2-2-----------------|--6-6-6-6-----------------3-3-3-3-|----------------------------------|----------------------------------|
----------------------------------|----------------------------------|----------------------------------|----------------------------------|----------------------------------|----------------------------------|------------------3-3-3-3-5-5-5-5-|----------6-6-6-6-3-3-3-3---------|--2-2-2-2-2-2-2-2-----------------|--6-6-6-6-----------------3-3-3-3-|----------------------------------|----------------------------------|
----------------------------------|--------------------|----------------------------------|--------------------|----------------------------------|-----5--4-----4--3--|------------------3-3-3-3-5-5-5-5-|-----------5--------|--2-2-2-2-2-2-2-2-----------------|--6-----------------|----------------------------------|--------------------|
------------------------------|--------------|------------------------------|--------------|------------------------------|--------------|------------------------------|--------------|------------------------------|--6--3--5--4--|--4-4-4-4-4-4-5--4--3-3-3--3--|--------------|
-----------------------------------|-----------------------------------------|-----------------------------------|-----------------------------------------|--------5--6--5--4-----4-----------|--------5--6--5--4-----4-----------------|-----4--------------2-----6--5-----|-----4--------------2-----6--5--4--------|--3-----------------------------4--|--3--------------------------------3--2--|-----------------------------------|-----------------------------------------|
---------------------------------------|--------------------------------|---------------------------------------|--------------------------------|---------------------------------------|--------------------------------|---------------------------------------|--------------------------------|---------------------------------------|--------------------------------|--1-1-1--3b---1-1-1--2b---1-1-1--1--1--|--3b---1-1-1--2b---1-1-1--1--1--|
--------------------------------|--------------------------|--------------------------------|--------------------------|--------------------------------|--------------------------|--------------------------------|--6h8p6h8p6h8p5h7p5h7p5h7-|--------------------------------|--------------------------|--3b---1-1-1--2b---1-1-1--1--1--|--------------------------|
-----------------------------|---------------------------------------|-----------------------------|---------------------------------------|-----------------------------|---------------------------------------|-----------------------------|---------------------------------------|--7h9p7h9p7h9h9h11p9h11p9h11-|---------------------------------------|-----------------------------|--1-1-1--3b---1-1-1--2b---1-1-1--1--1--|
--------------------------------|--------------------------------|--------------------------------|--------------------------------|--------------------------------|--------------------------------|--------------------------------|--------------------------------|--------------------------------|--------------------------------|--3b---1-1-1--2b---1-1-1--1--1--|--3b---1-1-1--2b---1-1-1--1--1--|
--------------------------|-----------------------------|--------------------------|-----------------------------|--------------------------|-----------------------------|--6h8p6h8p6h8p5h7p5h7p5h7-|-----------------------------|--------------------------|--7h9p7h9p7h9h9h11p9h11p9h11-|--------------------------|-----------------------------|
--------------------------------|--------------------------------|--------------------------------|--------------------------------|--------------------------------|--------------------------------|--------------------------------|--------------------------------|--8h10p8h10p8h10----------------|--------------------------------|-----------------9h11p9h11p9h11-|--10h12p10h12p10h12p7h9p7h9p7h9-|
-----------------------------------|-----------------------------------------|-----------------------------------|-----------------------------------------|--------5--6--5--4-----4-----------|--------5--6--5--4-----4-----------------|-----4--------------2-----6--5-----|-----4--------------2-----6--5--4--------|--3-----------------------------4--|--3--------------------------------3--2--|-----------------------------------|-----------------------------------------|
---------------------------------------|--------------------------------|---------------------------------------|--------------------------------|---------------------------------------|--------------------------------|---------------------------------------|--------------------------------|---------3b----------2b----------------|--3b----------2b----------------|--1-1-1-------1-1-1-------1-1-1--1--1--|-------1-1-1-------1-1-1--1--1--|
--------------------------------|--------------------------|--------------------------------|--------------------------|--------------------------------|--------------------------|--------------------------------|--6h8p6h8p6h8p5h7p5h7p5h7-|--3b----------2b----------------|--------------------------|-------1-1-1-------1-1-1--1--1--|--------------------------|
-----------------------------|---------------------------------------|-----------------------------|---------------------------------------|-----------------------------|---------------------------------------|-----------------------------|---------3-----------2-----------------|--7h9p7h9p7h9h9h11p9h11p9h11-|---------3-----------2-----------------|-----------------------------|--1-1-1--3----1-1-1--2----1-1-1--1--1--|
--------------------------------|--------------------------------|--------------------------------|--------------------------------|--------------------------------|--------------------------------|--3-----------2-----------------|--3-----------2-----------------|--3-----------2-----------------|--3-----------2-----------------|--3----1-1-1--2----1-1-1--1--1--|--3----1-1-1--2----1-1-1--1--1--|
--------------------------|-----------------------------|--------------------------|-----------------------------|--------------------------|-----------------------------|--6h8p6h8p6h8p5h7p5h7p5h7-|-----------------------------|--------------------------|--7h9p7h9p7h9h9h11p9h11p9h11-|--------------------------|-----------------------------|
--------------------------------|--------------------------------|--------------------------------|--------------------------------|--------------------------------|--------------------------------|--------------------------------|--------------------------------|--8h10p8h10p8h10----------------|--------------------------------|-----------------9h11p9h11p9h11-|--10h12p10h12p10h12p7h9p7h9p7h9-|
-----------------------------------|-----------------------------------------|-----------------------------------|-----------------------------------------|--------5--6--5--4-----4-----------|--------5--6--5--4-----4-----------------|-----4--------------2-----6--5-----|-----4--------------2-----6--5--4--------|--3-----------------------------4--|--3--------------------------------3--2--|-----------------------------------|-----------------------------------------|
--------------------------|-----------------------------------|--------------------------|-----------------------------------|-----------------------2--|-----------------------2--------4--|--------4--2--1-----3-----|--------4--2--1-----3--------2-----|-----3-----------4--------|-----3-----------4--------1--------|--1-----------------------|--1--------------------------------|
--------------------------------------------|--------------------------|--------------------------------------------|--------------------------|-----------------------2--------4--------6--|-----------------------2--|--------4--2--1-----3--------2--------4-----|--------4--2--1-----3-----|-----3-----------4--------1--------2--------|-----3-----------4--------|--1-----------------------------------------|--1-----------------------|
--------------------------|-----------------------|--------------------------|-----------------------|--------4--------6--------|--8--9-----------------|-----2--------4--------4--|-----10----------------|--1--------2--------4-----|-----8-----------------|--------------------------|-----------------------|
--------------------------------|-----------------------------------------|--------------------------------|-----------------------------------------|-----------------------2--------|-----------------------2--------4--------|--------4--2--1-----3-----------|--------4--2--1-----3--------2-----------|-----3-----------4--------------|-----3-----------4--------1--------------|--1-----------------------------|--1--------------------------------------|
--------------------------|--------------------------|--------------------------|--------------------------|-----------------------2--|--------4--------6--------|--------4--2--1-----3-----|-----2--------4--------4--|-----3-----------4--------|--1--------2--------4-----|--1-----------------------|--------------------------|
--------------------------------------|--------------------|--------------------------------------|--------------------|--8--5--------------------------------|-----1--------------|--------------------------------------|--------2-----2-----|--------------------------------------|-----------3-----3--|--------10-10-10-10-10-10-6-6-6-6-6-6-|--0-----------------|
----------------------|--------------------|------|--------------------|----------------------|--------------------|------|--------------------|----------------------|--------------------|------|-----1--------------|----------------------|-----2-----1--------|------|--------2-----2-----|-----3----------------|--------4-----2--3--|------|-----------3-----3--|--4-----4--1--0-0-0-0-|--0-----------------|------|--0-----------------|
----------------------|--------------------|------|--------------------|----------------------|--------------------|------|--------------------|----------------------|--------------------|------|-----1--------------|----------------------|-----2-----1--------|------|--------2-----2-----|-----3----------------|--------4-----2--3--|------|-----------3-----3--|--4-----4--1--0-0-0-0-|--0-----------------|------|--0-----------------|
----------------------|--------------------|------|--------------------------|----------------------|--------------------|------|--------------------------|----------------------|--------------------|------|--------------------------|----------------------|-----2-----1--------|------|--------------2-2-2-2-2-2-|-----3----------------|--------4-----3--2--|------|--------------------------|--4-----4--1--0-0-0-0-|--0-----------------|------|--4-4-4-4-4-4-------------|
--------------------------|--------------------------|--------------------------|--------------------------|--------------------------|--------------------------|--------------------------|--4-4-4-4-4-4-------------|--3-3-3-3-3-3-2-2-2-2-2-2-|--------------2-2-2-2-2-2-|--------------------------|--------------------------|
--------------------------|--------------------|----------------------|--------------------------|--------------------|----------------------|--------------2-2-2-2-2-2-|-----1--------------|----------------------|--------------------------|--------2-----2-----|----------------------|--1-1-1-1-1-1-------------|-----------3-----3--|-----3----------------|--------------------------|--0-----------------|--4-----4--1--0-0-0-0-|
--------------------|------|--------------------|----------------------|--------------------|------|--------------------|----------------------|--------------------|------|-----1--------------|----------------------|-----2-----1--------|------|--------2-----2-----|----------------------|--------4-----2--3--|------|-----------3-----3--|-----3----------------|--0-----------------|------|--0-----------------|--4-----4--1--0-0-0-0-|
--------------------|------|--------------------|----------------------|--------------------|------|--------------------|----------------------|--------------------|------|-----1--------------|----------------------|-----2-----1--------|------|--------2-----2-----|----------------------|--------4-----2--3--|------|-----------3-----3--|-----3----------------|--0-----------------|------|--0-----------------|--4-----4--1--0-0-0-0-|
--------------------|------|--------------------------|--------------------|------|--------------------------|--------------------|------|--------------------------|-----2-----1--------|------|--------------2-2-2-2-2-2-|--------4-----3--2--|------|--------------------------|--0-----------------|------|--4-4-4-4-4-4-------------|
--------------------------|--------------------------|--------------------------|--------------------------|--------------------------|--------------------------|--------------------------|--4-4-4-4-4-4-------------|--3-3-3-3-3-3-2-2-2-2-2-2-|--------------2-2-2-2-2-2-|--------------------------|--------------------------|
--------------------------|-----------------------------------------|--------------------------|-----------------------------------------|--------------2-2-2-2-2-2-|-----------------------------------------|--------------------------|--------------------------------4--3-----|--1-1-1-1-1-1-------------|--3--4--3--2--6--5-----5--4-----2--1-----|--------------------------|--1--2--1--0--4--3--0--3--2--0--2--1--0--|
-----------------------------|-----------------------------------------|-----------------------------|-----------------------------------------|-----------------------------|-----------------------------------------|--9--------6-----------------|--------------------------------4--3-----|-----7--------9--8--6--------|--3--4--3--2--6--5-----5--4-----2--1-----|--------6--------------8--0--|--1--2--1--0--4--3--0--3--2--0--2--1--0--|
----------------------------|-----------------------------------------|----------------------------|-----------------------------------------|----------------------------|-----------------------------------------|--9--------6----------------|--------------------------------4--3-----|-----7--------9--8--6-------|--3--4--3--2--6--5-----5--4-----2--1-----|--------6--------------8----|--1--2--1--0--4--3--0--3--2--0--2--1--0--|
-----------------------------|--------------------|--------------------|-----------------------------|--------------------|--------------------|-----------------------------|--------------------|--------------------|--9--------6-----------------|--------------------|--------------------|-----7--------9--8--6--------|--3--------4--------|--3--------2--------|--------6--------------8--0--|--1--------2--------|--1--------0--------|
--------------------|--------------------|--------------------|--------------------|--------------------|--------------------|--------------------|--------------------|--------------------|--------------------|--------------------|--------------------|--6--------5--------|--2--------5--------|--4--------2--------|--4--------3--------|--0--------3--------|--2--------0--------|
----------------------------------|--------------------|--------------------|----------------------------------|--------------------|--------------------|----------------------------------|--------------------|--------------------|----------------------------------|--------------------|--------------------|----------------------------------|--3--------4--------|--3--------2--------|--7h9p7h9p7h9p7h9p6h8p6h8p6h8p6h8-|--1--------2--------|--1--------0--------|
--------------------|--------------------|-----------|--------------------|--------------------|-----------|--------------------|--------------------|-----------|--------------------|-----------3--------|-----------|--6--------5--------|--2--------1--------|--4--------|--4--------3--------|--0--------1--------|--2--------|
-----------------------------------------|-----------------------------|-----------------------------------------|-----------------------------|-----------------------------------------|-----------------------------|--------------------------------4--3-----|--9--------6-----------------|--3--4--3--2--6--5-----5--4-----2--1-----|-----7--------9--8--6--------|--1--2--1--0--4--3--0--3--2--0--2--1--0--|--------6--------------8--0--|
--------------------|--------------------|--------------------|--------------------|--------------------|--------------------|--------------------|--------------------|--------------------|--------------------|--------------------|--------------------|--3--------4--------|--3--------2--------|--6--------5--------|--1--------2--------|--1--------0--------|--4--------3--------|
--------------------|--------------------|----------------------------------|--------------------|--------------------|----------------------------------|--------------------|--------------------|----------------------------------|--------------------|--------------------|----------------------------------|--2--------5--------|--4--------2--------|----------------------------------|--0--------3--------|--2--------0--------|--7h9p7h9p7h9p7h9p6h8p6h8p6h8p6h8-|
--------------------|--------------------|--------------------|--------------------|--3--------2--------|--1--------0--------|
-------------------------------------------------------------------------------- -------------------------------------------------------------------------------- --11p8h11p8h11p8h11p8h11p8h11p8h11p8h11p8h12p9h12p9h12p9h12p9h12p9h12p9h12p9h12p -------------------------------------------------------------------------------- -------------------------------------------------------------------------------- --------------------------------------------------------------------------------
--------------------------------------------------------------------------------------------------------------------------------------------------------------------------------------------------------------------------------------------------13p10h13p10h13p10h13p10h13p10h13p10h13p10h13p10---------------------------------------------------------------------------------14p11h14p11h14p11h14p11h14p11h--------------------------------------------------------------------------------
-------------------------------------------------------------------------------- -------------------------------------------------------------------------------- -------------------------------------------------------------------------------- -------------------------------------------------------------------------------- -------------------------------------------------------------------------------- --15p12h15p12h15p12h15p12h15p12h15p12h15p12h15p12h16p13h16p13h16p13h16p13h16p13h -------------------------------------------------------------------------------- -------------------------------------------------------------------------------- -------------------------------------------------------------------------------- -------------------------------------------------------------------------------- -------------------------------------------------------------------------------- --12p10h12p10h12p10h12p10h12p10h12p10h12p10h12p10p9p7h9p7h9p7h9p7h9p7h9p7h9p7h9p
-------------------------------------------|--------------------|-------------------------------------------|--------------------|-------------------------------------------|--------------------|----------------------------------6--------|--------------------|----------------------------------3--------|--3--------4--------|--6p4h6p4h6p4h6p4h6p4h6p4h6p4h6p4-3--------|--1--------2--------|
--------------------|--------------------|----------------------------------|--------------------|--------------------|----------------------------------|--------------------|--------------------|----------------------------------|--------------------|--------------------|--3---------------4---------------|--3--------2--------|--6--------5--------|----------------------------------|--1--------0--------|--4--------3--------|-----1-1-1--1--1-----1-1-1--1--1--|
------------------------|--------------------|---------------------|------------------------|--------------------|---------------------|--0-----2---------------|--3--2--0-----------|---------------------|------------------------|-----------3--1--4--|--2------------------|------------------------|--------------------|-----6---------------|-----1-----1-1-1--1--1--|--------------------|--------4-4-4--4--4--|
-----------------|----------------------------------|------------------------|-----------------|----------------------------------|------------------------|-----------------|----------------------------------|--0-----2---------------|-----------------|--3---------------4---------------|------------------------|--8--7--5--------|----------------------------------|------------------------|-----------8--7--|-----1-1-1--1--1-----1-1-1--1--1--|-----1-----1-1-1--1--1--|
--------------------|---------------------|-----------------|--------------------|---------------------|-----------------|--3--2--0-----------|---------------------|-----------------|-----------3--1--4--|--2------------------|-----------------|--------------------|-----6---------------|--8--7--5--------|--------------------|--------4-4-4--4--4--|-----------8--7--|
--------------------|-----------------|----------------------------------|--------------------|-----------------|----------------------------------|--------------------|-----------------|----------------------------------|--------------------|-----------------|--3---------------4---------------|--------3--4--3--2--|--6--5--2--5--4--|----------------------------------|--6--0--1--2--1--0--|--4--3--0--3--2--|-----1-1-1--1--1-----1-1-1--1--1--|
------------------------|--------------------|---------------------|------------------------|--------------------|---------------------|--0-----2---------------|--3--2--0-----------|---------------------|------------------------|-----------3--1--4--|--2------------------|------------------------|--------------------|-----6---------------|-----1-----1-1-1--1--1--|--------------------|--------4-4-4--4--4--|
-----------------|----------------------------------|------------------------|-----------------|----------------------------------|------------------------|-----------------|----------------------------------|--0-----2---------------|-----------------|--3---------------4---------------|------------------------|--8--7--5--------|----------------------------------|------------------------|-----------8--7--|-----1-1-1--1--1-----1-1-1--1--1--|-----1-----1-1-1--1--1--|
--------------------|---------------------|-----------------------|--------------------|---------------------|-----------------------|--3--2--0-----------|---------------------|-----------------------|-----------3--1--4--|--2------------------|-----------------------|--------------------|-----6---------------|--8--7--5--------------|--------------------|--------4-4-4--4--4--|-----------8--7--6--0--|
-----------------------------------------|-----------------------------|-----------------------------------------|-----------------------------|-----------------------------------------|-----------------------------|--------------------------------4--3-----|--9--------6-----------------|--3--4--3--2--6--5-----5--4-----2--1-----|-----7--------9--8--6--------|--1--2--1--0--4--3--0--3--2--0--2--1--0--|--------6--------------8--0--|
------------------------------------------------------|------------------------------------------------------|------------------------------------------------------|------------------------------------------------------|------------------------------------------------------|--1-1-1-1-1-1-1-1-1-1-1-1-1-1-1-1-1-1-1-1-1-1-1-1-1-1-|
------------------------------|------------------------------|------------------------------|--10--------7-----------------|------8--------10--9--7-------|---------7---------------9----|
------------------------------------------------------|------------------------------------------------------|------------------------------------------------------|------------------------------------------------------|------------------------------------------------------|--1-1-1-1-1-1-1-1-1-1-1-1-1-1-1-1-1-1-1-1-1-1-1-1-1-1-|
------------------------------|----------------------------|------------------------------|----------------------------|------------------------------|----------------------------|--10--------7-----------------|--9--------6----------------|------8--------10--9--7-------|-----7--------9--8--6-------|---------7---------------9----|--------6--------------8----|
----------------------------------|----------------------------------|----------------------------------|----------------------------------|----------------------------------|----------------------------------|------------------3-3-3-3-5-5-5-5-|----------6-6-6-6-3-3-3-3---------|--2-2-2-2-2-2-2-2-----------------|--6-6-6-6-----------------3-3-3-3-|----------------------------------|----------------------------------|
----------------------------------|----------------------------------|----------------------------------|----------------------------------|----------------------------------|----------------------------------|------------------3-3-3-3-5-5-5-5-|----------6-6-6-6-3-3-3-3---------|--2-2-2-2-2-2-2-2-----------------|--6-6-6-6-----------------3-3-3-3-|----------------------------------|----------------------------------|
----------------------------------|--------------------|----------------------------------|--------------------|----------------------------------|-----5--4-----4--3--|------------------3-3-3-3-5-5-5-5-|-----------5--------|--2-2-2-2-2-2-2-2-----------------|--6-----------------|----------------------------------|--------------------|
------------------------------|--------------|------------------------------|--------------|------------------------------|--------------|------------------------------|--------------|------------------------------|--6--3--5--4--|--4-4-4-4-4-4-5--4--3-3-3--3--|--------------|
----------------------------------|----------------------------------|----------------------------------|----------------------------------|----------------------------------|----------------------------------|------------------3-3-3-3-5-5-5-5-|----------6-6-6-6-3-3-3-3---------|--2-2-2-2-2-2-2-2-----------------|--6-6-6-6-----------------3-3-3-3-|----------------------------------|----------------------------------|
----------------------------------|----------------------------------|----------------------------------|----------------------------------|----------------------------------|----------------------------------|------------------3-3-3-3-5-5-5-5-|----------6-6-6-6-3-3-3-3---------|--2-2-2-2-2-2-2-2-----------------|--6-6-6-6-----------------3-3-3-3-|----------------------------------|----------------------------------|
----------------------------------|--------------------|----------------------------------|--------------------|----------------------------------|-----5--4-----4--3--|------------------3-3-3-3-5-5-5-5-|-----------5--------|--2-2-2-2-2-2-2-2-----------------|--6-----------------|----------------------------------|--------------------|
------------------------------|--------------|----------------------------|------------------------------|--------------|----------------------------|------------------------------|--------------|----------------------------|------------------------------|--------------|----------------------------|------------------------------|--6--3--5--4--|----------------------------|--4-4-4-4-4-4-5--4--3-3-3--3--|--------------|----------------------------|
---------------------------------------|--------------------------------|---------------------------------------|--------------------------------|---------------------------------------|--------------------------------|---------------------------------------|--------------------------------|---------------------------------------|--------------------------------|--1-1-1--3b---1-1-1--2b---1-1-1--1--1--|--3b---1-1-1--2b---1-1-1--1--1--|
--------------------------------|--------------------------|--------------------------------|--------------------------|--------------------------------|--------------------------|--------------------------------|--6h8p6h8p6h8p5h7p5h7p5h7-|--------------------------------|--------------------------|--3b---1-1-1--2b---1-1-1--1--1--|--------------------------|
-----------------------------|---------------------------------------|-----------------------------|---------------------------------------|-----------------------------|---------------------------------------|-----------------------------|---------------------------------------|--7h9p7h9p7h9h9h11p9h11p9h11-|---------------------------------------|-----------------------------|--1-1-1--3b---1-1-1--2b---1-1-1--1--1--|
--------------------------------|--------------------------------|--------------------------------|--------------------------------|--------------------------------|--------------------------------|--------------------------------|--------------------------------|--------------------------------|--------------------------------|--3b---1-1-1--2b---1-1-1--1--1--|--3b---1-1-1--2b---1-1-1--1--1--|
--------------------------|-----------------------------|--------------------------|-----------------------------|--------------------------|-----------------------------|--6h8p6h8p6h8p5h7p5h7p5h7-|-----------------------------|--------------------------|--7h9p7h9p7h9h9h11p9h11p9h11-|--------------------------|-----------------------------|
--------------------------------|--------------------------------|--------------------------------|--------------------------------|--------------------------------|--------------------------------|--------------------------------|--------------------------------|--8h10p8h10p8h10----------------|--------------------------------|-----------------9h11p9h11p9h11-|--10h12p10h12p10h12p7h9p7h9p7h9-|
-----------------------------------|-----------------------------------------|-----------------------------------|-----------------------------------------|--------5--6--5--4-----4-----------|--------5--6--5--4-----4-----------------|-----4--------------2-----6--5-----|-----4--------------2-----6--5--4--------|--3-----------------------------4--|--3--------------------------------3--2--|-----------------------------------|-----------------------------------------|
---------------------------------------|--------------------------------|---------------------------------------|--------------------------------|---------------------------------------|--------------------------------|---------3-----------2-----------------|--3-----------2-----------------|---------3-----------2-----------------|--3-----------2-----------------|--1-1-1--3----1-1-1--2----1-1-1--1--1--|--3----1-1-1--2----1-1-1--1--1--|
--------------------------------|--------------------------|--------------------------------|--------------------------|--------------------------------|--------------------------|--3-----------2-----------------|--6h8p6h8p6h8p5h7p5h7p5h7-|--3-----------2-----------------|--------------------------|--3----1-1-1--2----1-1-1--1--1--|--------------------------|
-----------------------------|-------------------------|-----------------------------|-------------------------|-----------------------------|-------------------------|-----------------------------|--3----------------------|--7h9p7h9p7h9h9h11p9h11p9h11-|--3----------------------|-----------------------------|--1----------------------|
-----------------------------------|-----------------------------------|-----------------------------------|-----------------------------------|-----------------------------------|--------5--6--5--4-----4-----------|--------6--7--6-7-6-5-----5--4-----|-----4--------------2-----6--5-----|-----4-----------------6--------4--|--3-----------------------------4--|--2--------------------------------|-----------------------------------|
-----------------------|-------------------------|-----------------------|-------------------------|-----------------------|-------------------------|--7--------------------|--3----------------------|--4--------------------|--3----------------------|--2--------------------|--1----------------------|
-----------------------------------------|-------------------||-----------------------------------------|-------------------||-----------------------------------------|-------------------||--------6--7--6-7-6-5-----5--4-----3--4--|-------------------||-----4-----------------6--------4--------|--2----------------||--2--------------------------------------|-------------------||
End.
Please rate this tab:
x1.0