Deftones – The Chauffeur tab

#----------------------------------PLEASE NOTE---------------------------------#
#This file is the author's own work and represents their interpretation of the #
#song. You may only use this file for private study, scholarship, or research. #
#------------------------------------------------------------------------------#

DEFTONES:THE CHAUFFEUR(DURAN DURAN COVER)
-----------------------------------------
TAB BY CHRIS KYURRE(kyurre@hotmail.com)

TUNING:DROPPED D(D,A,D,G,B,E)
       STANDARD (E,A,D,G,B,E)

SONG IS TABBED FOR BOTH TUNINGS, HOWEVER USING
DROPPED D IS BETTER FOR A SINGLE GUITARIST TO LEARN

Note:I've tabbed all the guitar parts, despite
---- Deftones only have one Guitarist, but Chino
     does play guitar sometimes!!!!

Note:Timing and Rhythm is not included, but the song
---- is simple enough for that to be figured out!!!!

INTRO/MAIN RIFF
---------------

1|-------------------------------------------------|2|-5-5-5---555/7-7-7---777/8-8-8---888\4-4-4---444/|3|-------------------------------------------------|4|-2-2-2---222/4-4-4---444/5-5-5---555\1-1-1---111/|5|-------------------------------------------------|6|-------------------------------------------------|
WITH:
1|-----------------10----------10----------7-------|2|-5-5-5---555/7-7-----777/8-8-----888\4-4-----444-|3|-------------------------------------------------|4|-------------------------------------------------|5|-------------------------------------------------|6|-------------------------------------------------|
(This riff is deeper in the mix, and could be a sample but it runs at the same time that the main riff is played) BRIDGE ------
1|-------------------------------------------------|2|-8-8-8---888\7-7-7---777\5-5-5---555/7-7-7---777/|3|-------------------------------------------------|4|-5-5-5---555\4-4-4---444\2-2-2---222/4-4-4---444/|5|-------------------------------------------------|6|-------------------------------------------------|
1|-------------------------------------------------------|2|-8-8-8---888\7-7-7---777\5-5-5---555/12-12-12---121212-|3|-------------------------------------------------------|4|-5-5-5---555\4-4-4---444\2-2-2---222/-9--9--9----9-9-9-|5|-------------------------------------------------------|6|-------------------------------------------------------|
1|------------------------------------------------------|2|-12-12-12--121212--12-12-12--121212--12-12-12--121212-|3|------------------------------------------------------|4|--9--9--9---9-9-9---9--9--9---9-9-9---9--9--9---9-9-9-|5|------------------------------------------------------|6|------------------------------------------------------|
2ND BRIDGE ----------
1|-------------------------------------------------|2|-8-8-8---888\7-7-7---777\5-5-5---555/7-7-7---777/|3|-------------------------------------------------|4|-5-5-5---555\4-4-4---444\2-2-2---222/4-4-4---444/|5|-------------------------------------------------|6|-------------------------------------------------|
1|-------------------------------------------------|2|-8-8-8---888\7-7-7---777\5-5-5---555/7-7-7---777/|3|-------------------------------------------------|4|-5-5-5---555\4-4-4---444\2-2-2---222/4-4-4---444/|5|-------------------------------------------------|6|-------------------------------------------------|
1|-------------------------------------------------------|2|-8-8-8---888\7-7-7---777\5-5-5---555/12-12-12---121212-|3|-------------------------------------------------------|4|-5-5-5---555\4-4-4---444\2-2-2---222/-9--9--9----9-9-9-|5|-------------------------------------------------------|6|-------------------------------------------------------|
1|------------------------------------------------------|2|-12-12-12--121212--12-12-12--121212--12-12-12--121212/|3|------------------------------------------------------|4|--9--9--9---9-9-9---9--9--9---9-9-9---9--9--9---9-9-9/|5|------------------------------------------------------|6|------------------------------------------------------|
1|-------------------------------------------------|2|-13-13-13-13-13-13-13-13\11-11-11-11-11-11-11-11/|3|-------------------------------------------------|4|-10-10-10-10-10-10-10-10\-8--8--8--8--8--8--8--8/|5|-------------------------------------------------|6|-------------------------------------------------|
1|-------------------------------------------------|2|-12-12-12-12-12-12-12-12-12-12-12-12-12-12-12-12-|3|-------------------------------------------------|4|--9--9--9--9--9--9--9--9--9--9--9--9--9--9--9--9-|5|-------------------------------------------------|6|-------------------------------------------------|
3RD BRIDGE ----------
1|-------------------------------------------------|2|-8-8-8---888\7-7-7---777\5-5-5---555/7-7-7---777/|3|-------------------------------------------------|4|-5-5-5---555\4-4-4---444\2-2-2---222/4-4-4---444/|5|-------------------------------------------------|6|-------------------------------------------------|
1|-------------------------------------------------|2|-8-8-8---888\7-7-7---777\5-5-5---555/7-7-7---777/|3|-------------------------------------------------|4|-5-5-5---555\4-4-4---444\2-2-2---222/4-4-4---444/|5|-------------------------------------------------|6|-------------------------------------------------|
1|-------------------------------------------------------|2|-8-8-8---888\7-7-7---777\5-5-5---555/12-12-12---121212-|3|-------------------------------------------------------|4|-5-5-5---555\4-4-4---444\2-2-2---222/-9--9--9----9-9-9-|5|-------------------------------------------------------|6|-------------------------------------------------------|
1|------------------------------------------------------|2|-12-12-12--121212--12-12-12--121212--12-12-12--121212/|3|------------------------------------------------------|4|--9--9--9---9-9-9---9--9--9---9-9-9---9--9--9---9-9-9/|5|------------------------------------------------------|6|------------------------------------------------------|
1|-------------------------------------------------|2|-13-13-13-13-13-13-13-13\11-11-11-11-11-11-11-11/|3|-------------------------------------------------|4|-10-10-10-10-10-10-10-10\-8--8--8--8--8--8--8--8/|5|-------------------------------------------------|6|-------------------------------------------------|
1|-------------------------------------------------|2|-12-12-12-12-12-12-12-12-12-12-12-12-12-12-12-12/|3|-------------------------------------------------|4|--9--9--9--9--9--9--9--9--9--9--9--9--9--9--9--9/|5|-------------------------------------------------|6|-------------------------------------------------|
1|-------------------------------------------------|2|-13-13-13-13-13-13-13-13\11-11-11-11-11-11-11-11/|3|-------------------------------------------------|4|-10-10-10-10-10-10-10-10\-8--8--8--8--8--8--8--8/|5|-------------------------------------------------|6|-------------------------------------------------|
1|-------------------------------------------------|2|-12-12-12-12-12-12-12-12-12-12-12-12-12-12-12-12-|3|-------------------------------------------------|4|--9--9--9--9--9--9--9--9--9--9--9--9--9--9--9--9-|5|-------------------------------------------------|6|-------------------------------------------------|
HEAVY RIFF/OUTRO ---------------- Note:I have tabbed the heavy riff twice, in Dropped D ---- tuning and standard tuning, and a one guitar version of the outro on Dropped D!!!!
1|-------------------------------------------------|2|-------------------------------------------------|3|-------------------------------------------------|4|-2-2-2---222/4-4-4---444/5-5-5---555/9-9-9---999\|5|-2-2-2---222/4-4-4---444/5-5-5---555/9-9-9---999\|6|-2-2-2---222/4-4-4---444/5-5-5---555/9-9-9---999\|
OR IN STANDARD TUNING:
1|-------------------------------------------------|2|-------------------------------------------------|3|-------------------------------------------------|4|-2-2-2---222/4-4-4---444/5-5-5---555/9-9-9---999\|5|-2-2-2---222/4-4-4---444/5-5-5---555/9-9-9---999\|6|-0-0-0---000/2-2-2---222/3-3-3---333/7-7-7---777\|
BOTH WITH:
1|-------------------------------------------------------|2|-5-5-5---555/7-7-7---777/8-8-8---888/12-12-12---121212\|3|-4-4-4---444/6-6-6---666/7-7-7---777/11-11-11---111111\|4|-2-2-2---222/4-4-4---444/5-5-5---555/-9--9--9----9-9-9\|5|-------------------------------------------------------|6|-------------------------------------------------------|
ALSO WITH:
1|-----------------10----------10----------7-------|2|-5-5-5---555/7-7-----777/8-8-----888\4-4-----444-|3|-------------------------------------------------|4|-------------------------------------------------|5|-------------------------------------------------|6|-------------------------------------------------|
(This riff is deeper in the mix, and could be a sample but it runs at the same time that the main riff is played) SINGLE GUITAR VERSION IN DROPPED D:
1|-------------------------------------------------------|2|-5-5-5---555/7-7-7---777/8-8-8---888/12-12-12---121212\|3|-4-4-4---444/6-6-6---666/7-7-7---777/11-11-11---111111\|4|-2-2-2---222/4-4-4---444/5-5-5---555/-9--9--9----9-9-9\|5|-2-2-2---222/4-4-4---444/5-5-5---555/-9--9--9----9-9-9\|6|-2-2-2---222/4-4-4---444/5-5-5---555/-9--9--9----9-9-9\|
SONG ORDER: ---------- INTRO/MAIN RIFF BRIDGE INTRO/MAIN RIFF 2ND BRIDGE INTRO/MAIN RIFF 3RD BRIDGE HEAVY RIFF/OUTRO AND THATS IT! EASY ENOUGH TO PLAY, BUT SOUNDS MONEY!!!!!!
Please rate this tab:
x1.0