Deicide - The Lords Sedition tab

Deicide
The Lord's Sedition
Tabbaed by \m/Gaz

I don't usually do introductory paragraphs, but I feel obliged to on this
one, as you've probably noticed, the tab is for the 'whole song', but only
part of the inrto is tabbed out, the reason being that I'm still working on
it, and all developments will be posted ASAP, thanks in advance for your
understanding.

*Do not give this tab low ratings because the whole song isn't here, rate*
*                  the accuracy of what IS here, please                  *

Guitar 1 [Ralph] = (EbAbC#F#BbEb) (Top guitar line)
Guitar 2 [Jack]  = (EbAbC#F#BbEb) (Second line down)


Clean Intro
(Only one guitar)

|----------3-----------------3-----2---------2------------||------------0-------------0---0-----0---------0-------3--||--------0-----0---------0-------0-----0---------0---2----||------2---------2-----2-----------------2---------0------||----2---------------2------------------------------------||--0---------------0-----------------------0--------------|
|----------3-----------------3-----2---------2------------||------------0-------------0---0-----0---------0----------||--------0-----0---------0-------0-----0---------0-----3--||------2---------2-----2-----------------2-----------3----||----2---------------2-----------------------------1------||--0---------------0-----------------------0--------------|
|----------3-----------------3-----2---------2------------||------------0-------------0---0-----0---------0-------3--||--------0-----0---------0-------0-----0---------0---2----||------2---------2-----2-----------------2---------0------||----2---------------2------------------------------------||--0---------------0-----------------------0--------------|
|----------3-----------------3-----2---------2------------||------------0-------------0---0-----0---------0----------||--------0-----0---------0-------0-----0---------0-----3--||------2---------2-----2-----------------2-----------3----||----2---------------2-----------------------------1------||--0---------------0-----------------------0--------------|
|----------------------0------------------------------0----------||--------------------0---0--------------------------0---0--------||--------0---------3-------3------------0---------3-------3------||------2---------4-----------4--------2---------4-----------4----||----2---------4---------------4----2---------4---------------4--||--0-------0-2--------------------0-------0-2--------------------|
|----------------------0----------||--------------------0---0--------||--------0---------3-------3------||------2---------4-----------4----||----2---------4---------------4--||--0-------0-2--------------------|
Distorted Intro (both guitars)
|------------------------------||------------------------------||------------------------------||--2--2--2--2--4--4--4--4--5\--||--2--2--2--2--4--4--4--4--5\--||--0--0--0--0--2--2--2--2--3\--|
| || ||------------------------------||------------------------------||------------------------------||--2--2--2--2--4--4--4--4--5\--||--2--2--2--2--4--4--4--4--5\--||--0--0--0--0--2--2--2--2--3\--|
|------------3-----3--/5---------------------------||----------0---0-----------------------7-10-7---7--||--------0-------0-----------------8-9--------9----||------2-------------------------------------------||----2---------------------------------------------||--0-----------------------------------------------|
| || ||--------------------------11-12-14----------------||-----------------------10-------------------------||--------------------------------------------------||--------------------------------------------------||--------------------------------------------------||--------------------------------------------------|
|--------------------------------------------||--------------------------------------------||--------------------------------------------||--------------------------------------------||--------------------------------------------||--------------------------------------------|
| || ||-----------11h12h14p12p11------11-----------||--10h12h13----------------[13]----13-12-12--||--------------------------------------------||--------------------------------------------||--------------------------------------------||--------------------------------------------|
|------------3-----3--2-----------11-12-14--||----------0---0------0--------10-----------||--------0-------0--------------------------||------2------------------------------------||----2--------------------------------------||--0----------------------------------------|
| || ||-------------------------------------------||-------------------------------------------||------------------------8-9-11-------------||----------------------7--------------------||-------------------------------------------||-------------------------------------------|
|--------------------------------------------||--------------------------------------------||--------------------------------------------||--------------------------------------------||--------------------------------------------||--------------------------------------------|
| || ||-----------16h17h19p17p16------16-----------||--15h17h18----------------[18]----18-17-17--||--------------------------------------------||--------------------------------------------||--------------------------------------------||--------------------------------------------|
|------------3-----3--2---------------------------||----------0---0------0---------------7-10-7---7--||--------0-------0----------------8-9--------9----||------2------------------------------------------||----2--------------------------------------------||--0----------------------------------------------|
| || ||-------------------------11-12-14----------------||----------------------10-------------------------||-------------------------------------------------||-------------------------------------------------||-------------------------------------------------||-------------------------------------------------|
|--------------------------------------------||--------------------------------------------||--------------------------------------------||--------------------------------------------||--------------------------------------------||--------------------------------------------|
| || ||-----------11h12h14p12p11------11-----------||--10h12h13----------------[13]----13-12-12--||--------------------------------------------||--------------------------------------------||--------------------------------------------||--------------------------------------------|
|------------3-----3--2-----------11-12-14--||----------0---0------0--------10-----------||--------0-------0--------------------------||------2------------------------------------||----2--------------------------------------||--0----------------------------------------|
| || ||-------------------------------------------||-------------------------------------------||------------------------8-9-11-------------||----------------------7--------------------||-------------------------------------------||-------------------------------------------|
|--------------------------------------------||--------------------------------------------||--------------------------------------------||--------------------------------------------||--------------------------------------------||--------------------------------------------|
| || ||-----------16h17h19p17p16------16-----------||--15h17h18----------------[18]----18-17-17--||--------------------------------------------||--------------------------------------------||--------------------------------------------||--------------------------------------------|
Tap to rate this tab
 
# A B C D E F G H I J K L M N O P Q R S T U V W X Y Z