Deicide - Not As Long As We Both Shall Live tab

Not as long as we both shall live
by: Deicide
Album: Till death do us part

Tuning: D standard


|---------------------------------||---------------------------------||---------------------------------||---------------------------------||---------------------------------||0-0-0-0-0-0-0-0-0-0-0-0-0-0-0-0--|
|----------------------------------||----------------------------------||----------------------------------||----------------------------------||----------------------------------||00000000000000000000000000000000-- ...
Glen starts singing here|-------------------------------------------------------||-------------------------------------------------------||-------------------------------------------------------||-------------------------------------------------------||--------------------222222211111111144444433333322222--||00000000000033333333-----------------------------------|
|---------------------------------||---------------------------------||---------------------------------||---------------------------------||---------------------------------||0-0-0-0-0-0-0-0-0-0-0-0-0-0-0-0--|
|--------------------------------------------------------||--------------------------------------------------------||-4~------3----------------------------------------------||------------5----7/4----7/3---6---9/12--/15--/18--/21~--||--------------------------------------------------------||--------------------------------------------------------|
|-------------------------------------------------------||-------------------------------------------------------||-------------------------------------------------------||-------------------------------------------------------||--------------------222222211111111144444433333322222--||00000000000033333333-----------------------------------|
|-------------------------------------------------------------------------------||-------------------------------------------------------------------------------||-------------------------------------------------------------------------------||-------------------------------------------------------------------------------||33333333322221111------------------555555555553333332222-----------------------||-----------------000000000000000000----------------------00000000000000000000--|
Terrible Solo - Rhythm Guitar|--------------------------------------------------------------------------||--------------------------------------------------------------------------||--------------------------------------------------------------------------||--------------------------------------------------------------------------||222222222555552222211111111444444111111-----------------------------------||---------------------------------------555555555558888885555544444444444--|
|---------------------------------||---------------------------------||---------------------------------||---------------------------------||---------------------------------||0-0-0-0-0-0-0-0-0-0-0-0-0-0-0-0--|
|--------------------------------------------------------||--------------------------------------------------------||-4~------3----------------------------------------------||------------5----7/4----7/3---6---9/12--/15--/18--/21~--||--------------------------------------------------------||--------------------------------------------------------|
|-------------------------------------------------------||-------------------------------------------------------||-------------------------------------------------------||-------------------------------------------------------||--------------------222222211111111144444433333322222--||00000000000033333333-----------------------------------|
Solo 2 - Rhythm Guitar|---------------------------------------------------------------------------||---------------------------------------------------------------------------||---------------------------------------------------------------------------||---------------------------------------------------------------------------||---------------------------------------------------------------------------||0000000000000000000000000000000000000006666666666666666666999999999999999--|
|-------------------------------------------------------||-------------------------------------------------------||-------------------------------------------------------||-------------------------------------------------------||--------------------222222211111111144444433333322222--||00000000000033333333-----------------------------------|
|-------------------------------------------------------------------------------||-------------------------------------------------------------------------------||-------------------------------------------------------------------------------||-------------------------------------------------------------------------------||33333333322221111------------------555555555553333332222-----------------------||-----------------000000000000000000----------------------00000000000000000000--|
Yet Another Terrible Solo - Rhythm Guitar|--------------------------------------------------------------------------||--------------------------------------------------------------------------||--------------------------------------------------------------------------||--------------------------------------------------------------------------||222222222555552222211111111444444111111-----------------------------------||---------------------------------------555555555558888885555544444444444--|
|---------------------------------||---------------------------------||---------------------------------||---------------------------------||---------------------------------||0-0-0-0-0-0-0-0-0-0-0-0-0-0-0-0--|....
|----------------------------------||----------------------------------||----------------------------------||----------------------------------||----------------------------------||00000000000000000000000000000000--| ...
|---------------------------------------------------------------------------||---------------------------------------------------------------------------||---------------------------------------------------------------------------||---------------------------------------------------------------------------||---------------------------------------------------------------------------||0000000000000000000000000000000000000006666666666666666666999999999999999--|
|-------------------------------------------------------||-------------------------------------------------------||-------------------------------------------------------||-------------------------------------------------------||--------------------222222211111111144444433333322222--||00000000000033333333-----------------------------------|
If you have any corrections email me at blackwood_Evan@yahoo.com KEEP IT METAL \m/
Tap to rate this tab
 
# A B C D E F G H I J K L M N O P Q R S T U V W X Y Z