Del Shannon - Runaway tab

                            Runaway
                          Del Shannon

Tab by:oman@fusemail.com

This is great song from the early 60's, if you can find it, I'd
check out the version by Luis Cardenas from the mid 80's. It is
truly a great rendition and really kicks. It was first time I'd
heard the lead, originally play on an organ, played on guitar ,
which is what I tabbed here. 

INTRO:

-----0-0---------0-0---------0-0--------0-0------0--|-----1-1---------1-1---------1-1--------1-1------1--|-----2-2---------2-2---------2-2--------2-2------2--|-----2-2---------2-2---------2-2--------2-2------2--|--0-----------0-----------0-----------0----------0--|---------0-3---------0-3---------0-3--------0-3-----|
Am G As I walk along I wonder, what went wrong, F E with our love, a love we thought was strong. Am G And as I still walk on I think of, the things we done, F E together, when our hearts were young. CHORUS: A F#m I'm a walkin' in the rain, tears are fallin' and I feel the pain. A F#m A Wishin' you were here by me, to end this misery, and I wonder... F#m I wa - wa - wa - wa - wonder. A F#M D Why. why - why - why - why - why - she ran away, and I wonder, E A D E when she will stay, my little runaway, run-run-run-run-runaway. LEAD: ( really dirty up your guitar for this, make it mean & nasty ) note: I wrote this in small increments to make easier to follow /=slide up \=slide down h=hammer r=rake(pull-off) v=vibrate
--------------------------------------------|--------------------------------------------|--12/14-14-13-14-------14-13-14----------14-|-----------------14-------------14----14----|--------------------15-------------15-------|--------------------------------------------|
-----------------------------------------|-----------------------------------------|--12-11h12----------------------------12-|-----------11h12--8h9------8h9--10/12----|----------------------9h10---------------|-----------------------------------------|
---------------------------------------------------|---------------------------------------------------|--8/10-10-9-10--------10-9-10----------10--9h10r9v-|---------------10-------------10----10-------------|------------------12-------------12----------------|---------------------------------------------------|
----------------------------|----------------------------|-----9----7----5----4----2--|----------------------------|--7----5----3----2----0-----|----------------------------|
---------------------------------------------|---------------------------------------------|--12/14-14-13-14--------14-13-14----------14-|-----------------14--------------14----14----|--------------------15--------------15-------|---------------------------------------------|
---------------------------------------------|---------------------------------------------|--12-11h12-----------------------------------|-----------11h12--8h9------------------------|-----------------------9h10---4h5------------|-----------------------------------6h7----3v-|
-------------------------------------------|-------------------------------------------|--8/10-10-9-10--------12-10-9--------12-10-|---------------10-------------10-----------|------------------12-------------12--------|-------------------------------------------|
( fill in run - played VERY quickly )
--12r9---12r9----------------------------|---------------12r9---12r9---------------|----------------------------11r9------9--|----------------------------------11-----|-----------------------------------------|-----------------------------------------|
--------------------------------|--------------------------------|-----9-----7-----5-----4-----2--|--------------------------------|--7-----5-----3-----2-----0-----|--------------------------------|
Any questions, comments or complaints, feel free to E-mail me or post a thread at this sight.
Tap to rate this tab
 
# A B C D E F G H I J K L M N O P Q R S T U V W X Y Z