Demon Hunter - Tide Began To Rise Acoustic tab

Artist: Demon Hunter
Song: The Tide Began to Rise (Acoustic) “Found secret on www.thethirdwar.com”
Tuning: Drop D
Tabber: guitarfreak328

-This song is a little different from the album version.
-I didn’t exactly do the rhythm but you can find it no problem.
-I don’t have the other guitar tabbed out yet. But it’s pretty simple. All it is, is strumming.

Guitar 1:E|----------------------------------------------------------------|B|----------------------------------------------------------------|G|-7---7-9-7-9-10---7---7-9-7-9-10--5---5-7-5-7-9---5---5-7-5-7-9-| 2xD|---7----------------7---------------5---------------5-----------|A|----------------------------------------------------------------|D|----------------------------------------------------------------|
|----------------------------------||-2-2-2-2-2-2-2-2--1-1-1-1-1-1-1-1-||-3-3-3-3-3-3-3-3--0-0-0-0-0-0-0-0-||-0-0-0-0-0-0-0-0--2-2-2-2-2-2-2-2-||----------------------------------||----------------------------------|
|--------------------------------------------||--------------------------------------------||-7---7-9-7-9-10---7---7-9-7-9-10—-----------||---7----------------7-------------8-7—-10-8-||----------------------------------8-7—-10-8-||----------------------------------8-7—-10-8-|
|----------------------------------------------------------------||----------------------------------------------------------------||-7---7-9-7-9-10---7---7-9-7-9-10--5---5-7-5-7-9---5---5-7-5-7-9-||---7----------------7---------------5---------------5-----------||----------------------------------------------------------------||----------------------------------------------------------------|
|-----------------------------------||-----------------------------------||-------------------5-5-5-5-5-5-5-5-||-9-9-9-9--3-3-3-3--5-5-5-5-5-5-5-5-||-9-9-9-9--3-3-3-3--3-3-3-3-3-3-3-3-||-9-9-9-9--3-3-3-3------------------|
|----------------------------------||----------------------------------||-5/7-7--5-5-5-5--3-3-3-3--1-1-1-1-||-5/7-7--5-5-5-5--3-3-3-3--1-1-1-1-||-3/5-5--3-3-3-3--1-1-1-1--3-3-3-3-||----------------------------------|
|-----------------------------------------||-----------------------------------------||-5/7-7--7-7-7-7-7-7-7-7--2-2-2-2-2-2-2-2-||-5/7-7--7-7-7-7-7-7-7-7--2-2-2-2-2-2-2-2-||-3/5-5--5-5-5-5-5-5-5-5--0-0-0-0-0-0-0-0-||-----------------------------------------|
|----------------------------------------------------------------||----------------------------------------------------------------||-7---7-9-7-9-10---7---7-9-7-9-10--5---5-7-5-7-9---5---5-7-5-7-9-||---7----------------7---------------5---------------5-----------||----------------------------------------------------------------||----------------------------------------------------------------|
|----------------------------------||-2-2-2-2-2-2-2-2--1-1-1-1-1-1-1-1-||-3-3-3-3-3-3-3-3--0-0-0-0-0-0-0-0-||-0-0-0-0-0-0-0-0--2-2-2-2-2-2-2-2-||----------------------------------||----------------------------------|
|--------------------------------------------||--------------------------------------------||-7---7-9-7-9-10---7---7-9-7-9-10—-----------||---7----------------7-------------8-7—-10-8-||----------------------------------8-7—-10-8-||----------------------------------8-7—-10-8-|
|----------------------------------------------------------------||----------------------------------------------------------------||-7---7-9-7-9-10---7---7-9-7-9-10--5---5-7-5-7-9---5---5-7-5-7-9-||---7----------------7---------------5---------------5-----------||----------------------------------------------------------------||----------------------------------------------------------------|
|-----------------------------------||-----------------------------------||-------------------5-5-5-5-5-5-5-5-||-9-9-9-9--3-3-3-3--5-5-5-5-5-5-5-5-||-9-9-9-9--3-3-3-3--3-3-3-3-3-3-3-3-||-9-9-9-9--3-3-3-3------------------|
|----------------------------------||----------------------------------||-5/7-7--5-5-5-5--3-3-3-3--5-5-5-5-||-5/7-7--5-5-5-5--3-3-3-3--5-5-5-5-||-3/5-5--3-3-3-3--1-1-1-1--3-3-3-3-||----------------------------------|
|-----------------------------------------||-----------------------------------------||-5/7-7--7-7-7-7-7-7-7-7--2-2-2-2-2-2-2-2-||-5/7-7--7-7-7-7-7-7-7-7--2-2-2-2-2-2-2-2-||-3/5-5--5-5-5-5-5-5-5-5--0-0-0-0-0-0-0-0-||-----------------------------------------|
|------------------------------------------------------------------------||------------------------------------------------------------------------||-7-7-7-7-5-3-5-7-5-3-7-7-7-7-7-10-10-10-10-10-12-12-10-7-7-7-7-7-5-3-5-3| |-0-0-0-0-0-0-0-0-0-0-0-0-0-0-0--0—-0—-0--0—-0—-0—-0-—0—0-0-0-0-0-0-0-0-0|12x|------------------------------------------------------------------------||------------------------------------------------------------------------|
Tap to rate this tab
 
# A B C D E F G H I J K L M N O P Q R S T U V W X Y Z