Descendents - M-16 tab

Sodom - M-16
2001

Tuning: D,C,G,F,A,D

/ - SLIDE UP TO          h - HAMMER ON
\ - SLIDE DOWN TO        p - PULL OFF
~ - VIBRATO              * - PALM MUTE
        <> - NATURAL HARMONIC

|--------------------------------------------------------------------------||--------------------------------------------------------------------------||--------------------------------------------------------------------------||--------------------------------------------------------------------------||-2--2-3--0-2----0--3-2--2-3--0-2~---2--2-3--0-2---0--3-2--3-2-3-0-0-3-2-3-||-0------------3----1-0--------------0-----------3----1-0------------------|
|---------------------------------------------------------------------------------||---------------------------------------------------------------------------------||---------------------------------------------------------------------------------||--------------------------------------2------------------------------------------||-2--2-3--0-2----0--3-2--2-3--0-2~---2-0-3-2--2-3--0-2----0--3-2--3-2-3-0-0-3-2-3-||-0------------3----1-0--------------0---1-0------------3----1-0------------------| * * *
|----------------------------------------||----------------------------------------||----------------------------------------||-------------2-----2----------------2---||-2-----5-----0-----0--3-2-----5-----0-3-||-0-0-0-3-0-0---0-0----1-0-0-0-3-0-0---1-| x4 * * * * * * * * * *
|------------------------------------------------------------------||------------------------------------------------------------------||------------------------------------------------------------------||-----------------3-------------------------------3----------------||-2---------------1---------------2---------------1----------------||-0-0-0-0-0-0-0-0---0-0-3-0-0-2~~-0-0-0-0-0-0-0-0---0-0-3-0-0-<2>~-| * * * * * * * * * * * * * * * * * * * * * *
|---------------------------------||---------------------------------||---------------------------------||-----------------3---------------||-2---------------1---------------||-0-0-0-0-0-0-0-0---0-0-3-0-0-2~~-| x2 * * * * * * * * * * *
|-------------------------------------------------------||-------------------------------------------------------||-------------------------------------------------------||--------------5-4-4-----------------5-4-4----5-5---4/5-||-----0-----2--3-2-2-2------0---0-2--3-2-2-2--3-3-0-2/3-||-0-0---1-3-0--------0--0-0---3---0--------0------------| * * * * * * * * * *
|-------------------------------------------------------------------------------------||-------------------------------------------------------------------------------------||-------------------------------------------------------------------------------------||-------------------------------------2-----------------------------------------2-----||-------2p0h2-------------------------0-3-------2p0h2-------------------------2-0-3/5-||-0-0-0-------0-0-0-5h3p5-0-0-0-3h2p3---1-0-0-0-------0-0-0-5p3h5-0-0-0-3p2h3-0---1/3-| x2 * * * * * * * * * * * * * * * * * *
|---------------------------------------------------------------------------------||---------------------------------------------------------------------------------||---------------------------------------------------------------------------------||--------------------------------------2------------------------------------------||-2--2-3--0-2----0--3-2--2-3--0-2~---2-0-3-2--2-3--0-2----0--3-2--3-2-3-0-0-3-2-3-||-0------------3----1-0--------------0---1-0------------3----1-0------------------| * * *
|---------------------------------------------------||---------------------------------------------------||---------------------------------------------------||-----------------3-------------------------------3-||-2---------------1---------------2---------------1-||-0-0-0-0-0-0-0-0---0-0-3-0-0-2~~-0-0-0-0-0-0-0-0---| * * * * * * * * * * * * * * * * * *
|-------------------------------------------------------||-------------------------------------------------------||-------------------------------------------------------||--------------5-4-4-----------------5-4-4----5-5---4/5-||-----0-----2--3-2-2-2------0---0-2--3-2-2-2--3-3-0-2/3-||-0-0---1-3-0--------0--0-0---3---0--------0------------|
* * * * * * * * * * |-------------------------------------------------------------------------------------||-------------------------------------------------------------------------------------||-------------------------------------------------------------------------------------||-------------------------------------2-----------------------------------------2-----||-------2p0h2-------------------------0-3-------2p0h2-------------------------2-0-3/5-||-0-0-0-------0-0-0-5h3p5-0-0-0-3h2p3---1-0-0-0-------0-0-0-5p3h5-0-0-0-3p2h3-0---1/3-| x2 * * * * * * * * * * * * * * * * * *
|---------------------------------------------------------------------------------||---------------------------------------------------------------------------------||---------------------------------------------------------------------------------||--------------------------------------2------------------------------------------||-2--2-3--0-2----0--3-2--2-3--0-2~---2-0-3-2--2-3--0-2----0--3-2--3-2-3-0-0-3-2-3-||-0------------3----1-0--------------0---1-0------------3----1-0------------------| x2 * * *
|----------------------------------------||----------------------------------------||----------------------------------------||-------------2-----2----------------2---||-2-----5-----0-----0--3-2-----5-----0-3-||-0-0-0-3-0-0---0-0----1-0-0-0-3-0-0---1-| x4 * * * * * * * * * *
|---------------------||---------------------||---------------------||---------------3-2---||-2-----7\5/5-2-1-0-5-||-0-0-0-5\3/5-0-----3-| x10
* *|---------------------||---------------------||---------------------||---------------------||-----0---------0-----||-0-0---1-3-0-0---1-3-| * * * * * * * * * *
|---------------------------------------------||---------------------------------------------||---------------------------------------------||----5-4-4-----------------5-4-4----5-5---4/5-||-2--3-2-2-2------0---0-2--3-2-2-2--3-3-0-2/3-||-0--------0--0-0---3---0--------0------------| * * * * *
|-------------------------------------------------------------------------------------||-------------------------------------------------------------------------------------||-------------------------------------------------------------------------------------||-------------------------------------2-----------------------------------------2-----||-------2p0h2-------------------------0-3-------2p0h2-------------------------2-0-3/5-||-0-0-0-------0-0-0-5h3p5-0-0-0-3h2p3---1-0-0-0-------0-0-0-5p3h5-0-0-0-3p2h3-0---1/3-| * * * * * * * * * * * * * * * * * *
|---------------------------------------------------------------------------------||---------------------------------------------------------------------------------||---------------------------------------------------------------------------------||--------------------------------------2------------------------------------------||-2--2-3--0-2----0--3-2--2-3--0-2~---2-0-3-2--2-3--0-2----0--3-2--3-2-3-0-0-3-2-3-||-0------------3----1-0--------------0---1-0------------3----1-0------------------| * * *
|----------------------------------------||----------------------------------------||----------------------------------------||-------------2-----2----------------2---||-2-----5-----0-----0--3-2-----5-----0-3-||-0-0-0-3-0-0---0-0----1-0-0-0-3-0-0---1-| x4 * * * * * * * * * *
|------------------||------------------||------------------||------------------||-5-3-5-3-5-3--2-2-||-3-1-3-1-3-1--0-0-|
There you go M-16 may be a few mistakes. but if so ill try fixing them. im pretty sure its 95% though
Tap to rate this tab
 
# A B C D E F G H I J K L M N O P Q R S T U V W X Y Z