Descendents – When I Get Old tab

Artist - Descendents
Song - When I Get Old

tabbed by shanE
email - random.hero___@hotmail.com

I didn't tab out the palm muting but I'm sure you'll figure that out.

|-------------------||-------------------||-------------------||-9-9---4-4-5-5--7--| x2|-7-7---2-2-3-3--7--||----------------5--|
|------------------||------------------||------------------||-9-9---5--3-3-3-3-| |-7-7---3--3-3-3-3-||----------1-1-1-1-|
|--------------------------------------------------||--------------------------------------------------||-----------7--7-7-5--5-5-5--4-4-4--9-9-9----------||--5-5-5-5--7--7-7-5--5-5-5--4-4-4--9-9-9-8-8-8----| x2|--5-5-5-5--5--5-5-3--3-3-3--2-2-2--7-7-7-8-8-8----||--3-3-3-3--------------------------------6-6-6----|
|-----------------------------------------||-----------------------------------------||---------7-x--7-5-x-5---8-8-8------------||--5-x-5--7-x--7-5-x-5---8-8-8------------||--5-x-5--5-x--5-3-x-3---6-6-6------------||--3-x-3----------------------------------|
|-------------------||-------------------||-------------------||-9-9---4-4-5-5--7--| x2|-7-7---2-2-3-3--7--||----------------5--|
|------------------||------------------||------------------||-9-9---5--3-3-3-3-| |-7-7---3--3-3-3-3-||----------1-1-1-1-|
|--------------------------------------------------||--------------------------------------------------||-----------7--7-7-5--5-5-5--4-4-4--9-9-9----------||--5-5-5-5--7--7-7-5--5-5-5--4-4-4--9-9-9-8-8-8----| x2|--5-5-5-5--5--5-5-3--3-3-3--2-2-2--7-7-7-8-8-8----||--3-3-3-3--------------------------------6-6-6----|
|-----------------------------------------||-----------------------------------------||---------7-x--7-5-x-5---8-8-8------------||--5-x-5--7-x--7-5-x-5---8-8-8------------||--5-x-5--5-x--5-3-x-3---6-6-6------------||--3-x-3----------------------------------|
|-------------------||-------------------||-------------------||-9-9---4-4-5-5--7--| x2|-7-7---2-2-3-3--7--||----------------5--|
|------------------||------------------||------------------||-9-9---5--4-4-4-4-| |-7-7---3--2-2-2-2-||------------------|
|-----------------------------||-----------------------------||--------9-10-----------------||-7--9---9-10-----------------||-7--9---7-8------------------||-5--7------------------------|
|------------------------------||------------------------------||--------9-9-9-----------------||-9-9-9--9-9-9--7-7-7--3-3-3---||-9-9-9--7-7-7--7-7-7--3-3-3---||-7-7-7---------5-5-5--1-1-1---|
|-----------------------------------------||-----------------------------------------||---------7-x--7-5-x-5---8-8-8------------||--5-x-5--7-x--7-5-x-5---8-8-8------------||--5-x-5--5-x--5-3-x-3---6-6-6------------||--3-x-3----------------------------------|
|-------------------||-------------------||-------------------||-9-9---4-4-5-5--7--| x2|-7-7---2-2-3-3--7--||----------------5--|
|------------------------------||---------------3--------------||-------------4---4h5-4--/-9---||-9-9---5---5-----5---5-/--9---| |-7-7---3-3----------------7---||------------------------------|
Please rate this tab:
x1.0