Destroy The Runner - From The Red tab

Tuning-Drop D down a whole step (Drop C):
D
A
F
C
G
C

PART I (A):

GUITAR 1 and GUITAR 2:

... ... ... ... ...|----------------------------------||----------------------------------||----------------------------------||----------------------------------||-000-000-5h8-000-7h10-000-000-3h7-||-000-000-----000------000-000-----|
PART I (B): GUITAR 1:
... ... ... ... ...|----------------------------------||----------------------------------||----------------------------------||----------------------------------||-000-000-5h8-000-7h10-000-000-3h7-||-000-000-----000------000-000-----|
GUITAR 2:
... ... ... ... ...|----------------------------------||----------------------------------||----------------------------------||---------3h7-----5h8---------2h5--||-000-000-----000-----000-000------||-000-000-----000-----000-000------|
PART II: GUITAR 1:
... ... ... ... ... ... ...|------------------------------------------------------------------||------------------------------------------------------------------||------------------------------------------------------------------||-------------------------7----------------------------------------||-000-5-8-7-4-000-000-5-8---8--000-000-000-5-8-7-4-000-5-8-0-3-7-3-||-000---------000-000----------000-000-000---------000-------------|
GUITAR 2:
... ... ... ... ... ... ...|------------------------------------------------------------------||-------------------------5----------------------------------------||---------------------3-7---7--------------------------------------||-----3-7-5-3-----------------------------3-7-5-3-----3-7---2-5-2--||-000---------000-000---------000-000-000---------000-----3--------||-000---------000-000---------000-000-000---------000--------------|
PART III (A): GUITARS 1 and 2:
...................................................|----------------------------------------------------||----------------------------------------------------||----------------------------------------------------||----------------------------------------------------||-0-000-000-00-000--0-000-00-000-000-00-000-0-000-00-||-0-000-000-00-000--0-000-00-000-000-00-000-0-000-00-|
PART III (B) [later in song-not after part A]:
GUITAR 1: ...................................................|----------------------------------------------------||----------------------------------------------------||----------------------------------------------------||----------------------------------------------------||-0-000-000-00-000--0-000-00-000-000-00-000-0-000-00-||-0-000-000-00-000--0-000-00-000-000-00-000-0-000-00-|
GUITAR 2:
|---------------------------------------------------||---------------------------------------------------||---------------------------------------------------||-0-------------------------------------------------||-0-------------------------------------------------||-0-------------------------------------------------|
PART IV:
GUITARS 1 and 2:|----------------------------------------------------||----------------------------------------------------||101010101010101010101010101010101010101010101010----||----------------------------------------------------||-8-8-8-8-8-8-8-8-8-8-8-8-8-8-8-8-8-8-8-8-8-8-8-8----||----------------------------------------------------|
|----------------------------------------------||----------------------------------------------||-12-12-12-12-12-12-12-12-12-12-12-12----------||----------------------------------------------||-10-10-10-10-10-10-10-10-10-10-10-10----------||----------------------------------------------|
|----------------------------------------------||----------------------------------------------||-14-14-14-14-14-14-14-14-14-14-14-14----------||----------------------------------------------||-12-12-12-12-12-12-12-12-12-12-12-12----------||----------------------------------------------|
|---------------------------------------------------------||---------------------------------------------------------||101010101010101010101010-14-14-14101010-12-12-12101010---||---------------------------------------------------------||-8-8-8-8-8-8-8-8-8-8-8-8-12-12-12-8-8-8-10-10-10-8-8-8---||---------------------------------------------------------|
|----------------------------------------------||----------------------------------------------||-12-12-12-12-12-12-12-12-12-12-12-12----------||----------------------------------------------||-10-10-10-10-10-10-10-10-10-10-10-10----------||----------------------------------------------|
|----------------------------------------------||----------------------------------------------||-14-14-14-14-14-14-15-15-15-15-15-15----------||----------------------------------------------||-12-12-12-12-12-12-13-13-13-13-13-13----------|
|----------------------------------------------------||----------------------------------------------------||101010101010101010101010101010101010101010101010----||----------------------------------------------------||-8-8-8-8-8-8-8-8-8-8-8-8-8-8-8-8-8-8-8-8-8-8-8-8----||----------------------------------------------------|
|----------------------------------------------||----------------------------------------------||-9-9-9-9-9-9-9-9-9-9-9-9----------------------||----------------------------------------------||-7-7-7-7-7-7-7-7-7-7-7-7----------------------||----------------------------------------------|
|----------------------------------------------||----------------------------------------------||-12-12-12-12-12-12-7-7-7-5-5-5----------------||----------------------------------------------||-10-10-10-10-10-10-5-5-5-3-3-3----------------||----------------------------------------------|
|---------------------------------------------------------||---------------------------------------------------------||101010101010101010101010-14-14-14101010-12-12-12101010---||---------------------------------------------------------||-8-8-8-8-8-8-8-8-8-8-8-8-12-12-12-8-8-8-10-10-10-8-8-8---||---------------------------------------------------------|
|----------------------------------------------||----------------------------------------------||-9-9-9-9-9-9-9-9-9-9-9-9----------------------||----------------------------------------------||-7-7-7-7-7-7-7-7-7-7-7-7----------------------||----------------------------------------------|
|----------------------------------------------||----------------------------------------------||-12-12-12-12-12-12-14-14-14-14-14-14----------||----------------------------------------------||-10-10-10-10-10-10-12-12-12-12-12-12----------||----------------------------------------------|
PART V:
Guitar 3:3x: the fourth time:|---------------------------------|------------------------------||---------------------------------|------------------------------||---------------------------------|------------------------------||-3-2-0---5-3-2-0-7-5-3-0-8-7-5-0-|-3-2-0---5-3-2-0-7-5-3-0-8-7--||-------3-------------------------|-------3----------------------||---------------------------------|------------------------------|
GUITAR 1:(leave out the 3h7 the fourth time you play it) ... ... ... ... ...|----------------------------------||----------------------------------||----------------------------------||----------------------------------||-000-000-5h8-000-7h10-000-000-3h7-||-000-000-----000------000-000-----|
GUITAR 2:(leave out the 2h5 the fourth time you play it) ... ... ... ... ...|----------------------------------||----------------------------------||----------------------------------||---------3h7-----5h8---------2h5--||-000-000-----000-----000-000------||-000-000-----000-----000-000------|
PART VI (A): GUITAR 1:
. .. ..|-----------------||-----------------||--10---1010---10-||-----------------||-0-8-00-8-8-00-8-||-0---00-----00---|
GUITAR 2:
...................................................|----------------------------------------------------||----------------------------------------------------||----------------------------------------------------||----------------------------------------------------||-0-000-000-00-000--0-000-00-000-000-00-000-0-000-00-||-0-000-000-00-000--0-000-00-000-000-00-000-0-000-00-|
PART VI (B)
GUITAR 1:3x: the fourth time: . .. .. . . . . . . .|-------------------|--------------------||-------------------|--------------------||--10----9/1010--10-|--10------------10v-||-------------------|--------------------||-0-8-00-7/8-8-00-8-|-0-8-0-0-0-0-0-0-8v-||-0---00-------00---|-0---0-0-0-0-0-0----|
GUITAR 2:3x: the fourth time: . .. .. . . . . . . .|------------------------|--------------------||------------------------|--------------------||---14----13/14-14----14-|---14---------------||------------------------|--------------------||-0-12-00-11/12-12-00-12-|-0-12-0-0-0-0-0-0---||-0----00----------00----|-0----0-0-0-0-0-0---|
PART VII:
GUITAR 1:4x: 2x: 2x: 4x:|--------------|---------------|-------------------|-------------------||-10-----------|-11------------|-13----------------|-15----------------||---9-7-10-9-7-|----9-7-10-9-7-|----12-10-13-12-10-|----14-12-15-14-12-||--------------|---------------|-------------------|-------------------||--------------|---------------|-------------------|-------------------||--------------|---------------|-------------------|-------------------|
2x:|-------------------|-------------------------------------------||-17----------------|-18-18-18-18-18-18-20-20-20-20-20-20-------||----16-14-17-16-14-|-15-15-15-15-15-15-17-17-17-17-17-17-------||-------------------|-------------------------------------0-----||-------------------|-------------------------------------0-----||-------------------|-------------------------------------0-----|
GUITAR 2:2x:|-------------------------------------|-------------------------||-10-10-10-10-10-10-10-10-10-10-10-10-|111111111111111111111111-||-------------------------------------|-------------------------||--7--7--7--7--7--7--7--7--7--7--7--7-|-8-8-8-8-8-8-8-8-8-8-8-8-||-------------------------------------|-------------------------||-------------------------------------|-------------------------|
2x:|-------------------------------------|-------------------------------------|-13-13-13-13-13-13-13-13-13-13-13-13-|-15-15-15-15-15-15-15-15-15-15-15-15-|-------------------------------------|-------------------------------------|-10-10-10-10-10-10-10-10-10-10-10-10-|-12-12-12-12-12-12-12-12-12-12-12-12-|-------------------------------------|-------------------------------------|-------------------------------------|-------------------------------------
|---------------------------------------------------------||-17-17-17-17-17-17-17-17-17-17-17-17-18-18-18-20-20-20---||---------------------------------------------------------||-14-14-14-14-14-14-14-14-14-14-14-14-15-15-15-17-17-17-0-||-------------------------------------------------------0-||-------------------------------------------------------0-|
SONG ORDER: PART I (A) 8x PART I (B) 4x PART II 2x PART I (B) 4x PART III (A) PART IV PART II 2x PART I (B) 4x PART V: PART IV PART III (B) PART III (A) 2x PART VI (A) 4x PART VI (B) PART IV PART VII
Tap to rate this tab
 
# A B C D E F G H I J K L M N O P Q R S T U V W X Y Z