Deus Ex – Death Of Gaia tab

Artist: Deus Ex
Song:Death of Gaia 
Standard Tuning: E B G D A E

Order:

Opening
Riff A
Riff B
Riff C
Riff D
Riff E
Riff F
Riff C
Solo
Riff A
Riff B
Outro


Opening:

|--------------------------------------------------||--------------------------------------------------||--------------------------------------------------||-4-7-9-11---4-7-11-9----4-7-9-11---4-7-11-9999----||-2-5-7-9----2-5-9--7----2-5-7-9----2-5-9--7777----||--------------------------------------------------|
Riff A:
|--------------------------------------------------||--------------------------------------------------||--------------------------------------------------||-4-444-7-777-6-666-7777--4-444-7-777-6-666-76-----||-2-222-5-555-4-444-5555--2-222-5-555-4-444-54-----||--------------------------------------------------|
Continue...|--------------------------------------------------||--------------------------------------------------||--------------------------------------------------||-4-444-7-777-4-444-7777--4-444-7-777-6-666-97-----||-2-222-5-555-6-666-5555--2-222-5-555-4-444-75-----||--------------------------------------------------|
Riff B:
|--------------------------------------------------||--------------------------------------------------||--------------------------------------------------||-4-6-7--1197---4-6-7--119---4-6-7--119---4-6-7----||-2-4-5--9-75---2-4-5--9-7---2-4-5--9-7---2-4-5----||--------------------------------------------------|
Continue...|--------------------------------------------------||--------------------------------------------------||--------------------------------------------------||-119----------------------------------------------||-9-7----------------------------------------------||--------------------------------------------------|
Riff C:
|--------------------------------------------------||--------------------------------------------------||--------------------------------------------------||-4-444-7-777-6-666-7777--4-444-7-777-6-666-97-----||-2-222-5-555-4-444-5555--2-222-5-555-4-444-75-----||--------------------------------------------------|
Continue...|--------------------------------------------------||--------------------------------------------------||--------------------------------------------------||-4-444-7-777-4-444-7777--4-444-7-777-9-999-666-7--||-2-222-5-555-6-666-5555--2-222-5-555-7-777-444-5--||--------------------------------------------------|
Riff D:
|--------------------------------------------------||--------------------------------------------------||--------------------------------------------------||-4676-2--64--4676-2--464--4676-2--64--4676-2--764-||-2454-0--42--2454-0--242--4676-2--64--2454-0--542-||--------------------------------------------------|
Riff E:
|--------------------------------------------------||--------------------------------------------------||--------------------------------------------------||-3-6-8--986---3-6-8--98---3-6-8--986---3-6-8--98--||-1-4-6--764---1-4-6--76---1-4-6--764---1-4-6--76--||--------------------------------------------------|
Riff F:
|--------------------------------------------------||--------------------------------------------------||--------------------------------------------------||-3-333-6-666-8-888-999--3-333-6-666-8-888-76------||-1-111-4-444-6-666-777--1-111-4-444-6-666-54------||--------------------------------------------------|
Continue...|--------------------------------------------------||--------------------------------------------------||--------------------------------------------------||-3-333-6-666-8-888-999--3-333-6-666-8-888-119-----||-1-111-4-444-6-666-777--1-111-4-444-6-666-9-7-----||--------------------------------------------------|
Solo:
|-2454-0--42--2454-0--242--2454-0--42--2454-0--542-||-0000-0--00--0000-0--000--0000-0--00--0000-0--000-||--------------------------------------------------||--------------------------------------------------||--------------------------------------------------||--------------------------------------------------|
Outro:
|--------------------------------------------------||--------------------------------------------------||--------------------------------------------------||-4-444-7-777-4-444-7777--4-444-7-777-9-999-666-7-4||-2-222-5-555-6-666-5555--2-222-5-555-7-777-444-5-2||--------------------------------------------------|
Please rate this tab:
x1.0