Devendra Banhart - Noah tab



6/8 B ||--0--0--0--0--0--0|--0--0--0--0--0--0|F#||--0--0--0--0--0--0|--0--0--0--0--0--0| B ||---0--2-----0--2--|---0--2-----0--2--| E ||------------------|------------------| A ||------------------|------------------| X 4C#||3--------3--------|0--------0--------|
Intro
|--0--0--0--0--0--0|--0--0--0--0--0--0| |--0--0--0--0--0--0|--0--0--0--0--0--0| |---4--2--5--4--2--|5--4--2--5--4--2--| |------------------|------------------| |------------------|------------------| X 2|0-----------------|------------------|
There's nobody out there.....
|--0--0--0--0--0--0|--0--0--0--0--0--0| |--0--0--0--0--0--0|--0--0--0--0--0--0| |---4--2--5--4--2--|5--4--2--5--4--2--| |------------------|------------------| |0-----------------|------------------| X 2|------------------|------------------|
|--0--0--0--0--0--0|--0--0--0--0--0--0||--0--0--0--0--0--0|--0--0--0--0--0--0| |---0--5-----0--5--|5--4--5--7--5--4--| |------------------|------------------| |3--------3--------|------------------| |------------------|------------------|
Hope that Happiness...
|--0--0--0--0--0--0|--0--0--0--0--0--0||--0--0--0--0--0--0|--0--0--0--0--0--0| |---0--2-----0--2--|---0--2-----0--2--| |------------------|------------------| |------------------|------------------| X 2|3--------3--------|0--------0--------|
|--0--0--0--0--0--0| |--0--0--0--0--0--0| |---0--2-----------|
|---------3--2-----| (Second Time) |---------------3--| |0-----------------|
|--0--0--0--0--0--0|--0--0--0--0--0--0||--0--0--0--0--0--0|--0--0--0--0--0--0||---2--2-----2--2--|---2--2--4--2--4--| |0--------2--------|3-----------------| |------------------|------------------| |------------------|------------------|
While you were...
|--0--0--0--0--0--0|--0--0--0--0--0--0||--0--0--0--0--0--0|--0--0--0--0--0--0||---2--2-----------|---2--2-----2--2--| |0--------3--2-----|0--------2--------| |---------------3--|------------------| |------------------|------------------|
I played the ghost...
|--0--0--0--0--0--0|--0--0--0--0--0--0||--0--0--0--0--0--0|--0--0--0--0--0--0||---2--2--4--2--4--|---2-----------2--| |3-----------------|3-----2--3--2-----| |------------------|------------------| |------------------|------------------|
|--0--0--0--0--0--0|--0--0--0--0--0--0||--0--0--0--0--0--0|--0--0--0--0--0--0| |---0--2-----0--2--|---0--2-----0--2--| |------------------|------------------| |------------------|------------------| |3--------2--------|0--------0--------|
|--0--0--0--0--0--0|--0--0--0--0--0--0||--0--0--0--0--0--0|--0--0--0--0--0--0| |---0--2-----0--2--|---0--2-----0--2--| |------------------|------------------| |------------------|------------------| |0--------2--------|3--------3--------|
|--0--0--0--0--0--0|--0--0--0--0--0--0||--0--0--0--0--0--0|--0--0--0--0--0--0| |---0--2-----0--2--|---0--2--------2--| |------------------|------------2-----| |------------------|------------------| |3--------3--------|0--------0--------|
|--0--0--0--0--0--0|--0--0--0--0--0--0| |--0--0--0--0--0--0|--0--0--0--0--0--0| |---4--2--5--4--2--|5--4--2--5--4--2--| |------------------|------------------| |------------------|------------------| X 2|0-----------------|------------------|
There's nobody out there...
|--0--0--0--0--0--0|--0--0--0--0--0--0| |--0--0--0--0--0--0|--0--0--0--0--0--0| |---4--2--5--4--2--|5--4--2--5--4--2--| |------------------|------------------| |0-----------------|------------------| X 2|------------------|------------------|
|--0--0--0--0--0--0|--0--0--0--0--0--0||--0--0--0--0--0--0|--0--0--0--0--0--0| |---0--5-----0--5--|5--4--5--7--5--4--| |------------------|------------------| |3--------3--------|------------------| |------------------|------------------|
Hope that happiness...
|--0--0--0--0--0--0|--0--0--0--0--0--0||--0--0--0--0--0--0|--0--0--0--0--0--0| |---0--2-----0--2--|---0--2-----0--2--| |------------------|------------------| |------------------|------------------| X 2|3--------3--------|0--------0--------|
|--0--0--0--0--0--0| |--0--0--0--0--0--0| |---0--2-----------|
|---------3--2-----| (Second Time) |---------------3--| |0-----------------|
|--0--0--0--0--0--0|--0--0--0--0--0--0||--0--0--0--0--0--0|--0--0--0--0--0--0||---2--2-----2--2--|---2--2--4--2--4--| |0--------2--------|3-----------------| |------------------|------------------| |------------------|------------------|
While you were...
|--0--0--0--0--0--0|--0--0--0--0--0--0||--0--0--0--0--0--0|--0--0--0--0--0--0||---2--2-----------|---2--2-----2--2--| |0--------3--2-----|0--------2--------| |---------------3--|------------------| |------------------|------------------|
I played the ghost...
Tap to rate this tab
 
# A B C D E F G H I J K L M N O P Q R S T U V W X Y Z