Devendra Banhart - Sawkill River tab

Tabbed by Chris Hannant Pensquared4life@gmail.com

Capo 5th fret

there are some spots where i leave out h's or p's out (denoting the hammers and pulls)
so i could make room, but you'll know where they are.


-2p0--------------------------------------------|-0----4p0-------0-----------0-----------0-------|-4--------------4-----------4-----------4-------|-5--------------5-----------5-----------5-------|-0--------------0-----------0-----------0-------|-0--------0--0--0--0--0--0--0--0--0--0--0--0--0-|
-----------0-------------------------------0-------------------|-0-------------------------------0-----------------------------|-------0---------020-------------------0---------020-----4b----|---------------------4p0-2---------------------------4p0-------|---------------------------------------------------------------|-0---0---0---0---0---0---0---0---0---0---0---0---0---0---0---0-|
-0-------------------------|-------0-------------------|-----------4-----020-------|---------------------4p0-2-|---------------------------|-0---0---0---0---0---0---0-|
---------------------------------------------------------------|-----------------------0-------------------------------0-------|-------0-------------------------------0-----------------------|-2s4-------2-----2---------2-----2s4-------2-----2---------2---|---------------------------------------------------------------|-0---0---0---0---0---0---0---0---0---0---0---0---0---0---0---0-|
-------0-----------------------------------0-------------------|-0-------------------------------0-----------------------------|-4---------0-----020-------------------0---------020-----4b----|-X-------------------4p0-2---------------------------4p0-------|-X-------------------------------------------------------------|-0---0---0---0---0---0---0---0---0---0---0---0---0---0---0---0-|
-0-------------------------|-------0-------------------|-----------4-----020-------|---------------------4p0-2-|---------------------------|-0---0---0---0---0---0---0-|
-------------------------------------------------------0-------|-----------------------0---------------------------------------|-------0-------------------------------0-------------------0---|-2s4-------2-----2---------2-----2s4-------2-----2-------------|---------------------------------------------------------------|-0---0---0---0---0---0---0---0---0---0---0---0---0---0---0---0-|
-----------------------0---------|-4-------4-------4h5-------5-----|-----5-------5-----------------5-|---------------------------------|---------------------------------|-0---0---0---0---0---0---0---0---|
-------------------|-4-------4---------|-----5-------5-----|-------------------|-------------------|-0---0---0---0---0-|
-0-----0-------------------------0-----0-----------------------|-0---------0---------------------0---------0-------------------|-0---------------020-------------0---------------020-----4b----|-4-------------------4p0-2-------4-------------------4p0-------|-0-------------------------------0-----------------------------|-0---0---0---0---0---0---0---0---0---0---0---0---0---0---0---0-|
-0-----0-------------------|-0---------0---------------|-0---------------020-------|-4-------------------4p0-2-|-0-------------------------|-0---0---0---0---0---0---0-|
---------------------------------------------------------------|-----------------------0-------------------------------0-------|-------0-------------------------------0-----------------------|-2s4-------2-----2---------2-----2s4-------2-----2---------2---|---------------------------------------------------------------|-0---0---0---0---0---0---0---0---0---0---0---0---0---0---0---0-|
---------------------------------------------------------------|-3p0--2p0--------------0---------3p0--2p0----------------------|-----------0-----4b--------4---------------0-----34--3p0-------|-------------2-------------------------------2-----------2---0-|---------------------------------------------------------------|-0---0---0---0---0---0---0---0---0---0---0---0---0---0---0---0-|
---------------------------------------------------------------|-3p0--2p0--------------0---------3p0--2p0----------------------|-----------0-----4b--------4---------------0-----34--3p0-0-----|-------------2-------------------------------2---------------2-|---------------------------------------------------------------|-0---0---0---0---0---0---0---0---0---0---0---0---0---0---0---0-|
that's pretty much it. the rest of the song uses everything i have here except he leaves out a few bass notes in places.
Tap to rate this tab
 
# A B C D E F G H I J K L M N O P Q R S T U V W X Y Z