Devildriver - Just Run tab version 2

DEVILDRIVER
JUST RUN

B-F#-B-E-G#-C#

*=PALM MUTE
\,/SLIDE
)=BEND

TABBED BY- andherembrace

0:15------------------------------------------------------|------------------------------------------------------|------------------------------------------------------|------------------------------------------------------|-5-0-********-3-0-********-1-0-********-1-------------|-5-0-00000000-3-0-00000000-1-0-00000000-1-0-0-0-1-3-4-|
0:20------------------------------------------------------|------------------------------------------------------|------------------------------------------------------|------------------------------------------------------|-5-0-********-3-0-********-1-0-********-1-------------|-5-0-00000000-3-0-00000000-1-0-00000000-1-0-0-0-1-3-4-|
0:26----------------------------------------------------------|----------------------------------------------------------|----------------------------------------------------------|----------------------------------------------------------|-5-5-5-5-5-5-5-3-3-3-3-3-3-3-1-1-1-1-1-1-1-0-0-0-0--------|-5-5-5-5-5-5-5-3-3-3-3-3-3-3-1-1-1-1-1-1-1-0-0-0-0-0-1-3-4|
0:31----------------------------------------------------------|----------------------------------------------------------|----------------------------------------------------------|----------------------------------------------------------|-5-5-5-5-5-5-5-3-3-3-3-3-3-3-1-1-1-1-1-1-1-0-0-0-0--------|-5-5-5-5-5-5-5-3-3-3-3-3-3-3-1-1-1-1-1-1-1-0-0-0-0-0-1-3-4|
0:36-------------------------------------------------------------|-------------------------------------------------------------|-------------------------------------------------------------|-------------------------------------------------------------|---*-**********---*-**********---*-**********----------------|-5-5-5555555555-3-3-3333333333-1-1-1111111111-0-0-0-0-0-1-3-4|
0:41-------------------------------------------------------------|-------------------------------------------------------------|-------------------------------------------------------------|-------------------------------------------------------------|---*-**********---*-**********---*-**********----------------|-5-5-5555555555-3-3-3333333333-1-1-1111111111-0-0-0-0-0-1-3-4|
0:47----------------------------------|----------------------------------|----------------------------------|----------------------------------|----------------------------------|-/16\/16\/16\/16\/16\/16\/16\/16\-|
0:49-----------------------------------------------------------|-----------------------------------------------------------|-----------------------------------------------------------|-----------------------------------------------------------|---**---**---**---**-/8-5-------**---**---**---**----------|-5-55-0-00-5-55-0-00------6-5-3-33-0-00-3-33-0-00-0-1-3-4--|
0:54-----------------------------------------------------------|-----------------------------------------------------------|-----------------------------------------------------------|-----------------------------------------------------------|---**---**---**---**-/8-5-------**---**---**---**----------|-5-55-0-00-5-55-0-00------6-5-3-33-0-00-3-33-0-00-0-1-3-4--|
0:59-----------------------------------------------------------|-----------------------------------------------------------|-----------------------------------------------------------|-----------------------------------------------------------|---**---**---**---**-/8-5-------**---**---**---**----------|-5-55-0-00-5-55-0-00------6-5-3-33-0-00-3-33-0-00-0-1-3-4--|
1:05-----------------------------------------------------------|-----------------------------------------------------------|-----------------------------------------------------------|-----------------------------------------------------------|---**---**---**---**-/8-5-------**---**---**---**----------|-5-55-0-00-5-55-0-00------6-5-3-33-0-00-3-33-0-00-0-1-3-4--|
1:10-----------------------------------------------------------|-----------------------------------------------------------|-----------------------------------------------------------|-----------------------------------------------------------|----------------------8-5----------------------------------|-5-55-0-00-5-55-0-00------6-5-3-33-0-00-3-33-0-00-0-1-3-4--|
1:15-----------------------------------------------------------|-----------------------------------------------------------|-----------------------------------------------------------|-----------------------------------------------------------|----------------------8-5----------------------------------|-5-55-0-00-5-55-0-00------6-5-3-33-0-00-3-33-0-00-0-1-3-4--|
1:20-------------------------|-------------------------|-------------------------|-------------------------|---------*-*-*-*---------|-0-1-3-4-0-1-3-4-0-1-3-4-|
1:22----------------------------------------------------------|----------------------------------------------------------|----------------------------------------------------------|----------------------------------------------------------|-5-5-5-5-5-5-5-3-3-3-3-3-3-3-1-1-1-1-1-1-1-0-0-0-0--------|-5-5-5-5-5-5-5-3-3-3-3-3-3-3-1-1-1-1-1-1-1-0-0-0-0-0-1-3-4|
1:27----------------------------------------------------------|----------------------------------------------------------|----------------------------------------------------------|----------------------------------------------------------|-5-5-5-5-5-5-5-3-3-3-3-3-3-3-1-1-1-1-1-1-1-0-0-0-0--------|-5-5-5-5-5-5-5-3-3-3-3-3-3-3-1-1-1-1-1-1-1-0-0-0-0-0-1-3-4|
1:32-------------------------------------------------------------|-------------------------------------------------------------|-------------------------------------------------------------|-------------------------------------------------------------|---*-**********---*-**********---*-**********----------------|-5-5-5555555555-3-3-3333333333-1-1-1111111111-0-0-0-0-0-1-3-4|
1:37-------------------------------------------------------------|-------------------------------------------------------------|-------------------------------------------------------------|-------------------------------------------------------------|---*-**********---*-**********---*-**********----------------|-5-5-5555555555-3-3-3333333333-1-1-1111111111-0-0-0-0-0-0-16\|
1:42-----------------------------------------------------------|-----------------------------------------------------------|-----------------------------------------------------------|-----------------------------------------------------------|---**---**---**---**-/8-5-------**---**---**---**----------|-5-55-0-00-5-55-0-00------6-5-3-33-0-00-3-33-0-00-0-1-3-4--|
1:48-----------------------------------------------------------|-----------------------------------------------------------|-----------------------------------------------------------|-----------------------------------------------------------|---**---**---**---**-/8-5-------**---**---**---**----------|-5-55-0-00-5-55-0-00------6-5-3-33-0-00-3-33-0-00-0-1-3-4--|
1:53-----------------------------------------------------------|-----------------------------------------------------------|-----------------------------------------------------------|-----------------------------------------------------------|---**---**---**---**-/8-5-------**---**---**---**----------|-5-55-0-00-5-55-0-00------6-5-3-33-0-00-3-33-0-00-0-1-3-4--|
1:58-----------------------------------------------------------|-----------------------------------------------------------|-----------------------------------------------------------|-----------------------------------------------------------|---**---**---**---**-/8-5-------**---**---**---**----------|-5-55-0-00-5-55-0-00------6-5-3-33-0-00-3-33-0-00-0-1-3-4--|
2:04-----------------------------------------------------------|-----------------------------------------------------------|-----------------------------------------------------------|-----------------------------------------------------------|----------------------8-5----------------------------------|-5-55-0-00-5-55-0-00------6-5-3-33-0-00-3-33-0-00-0-1-3-4--|
2:09-----------------------------------------------------------|-----------------------------------------------------------|-----------------------------------------------------------|-----------------------------------------------------------|----------------------8-5----------------------------------|-5-55-0-00-5-55-0-00------6-5-3-33-0-00-3-33-0-00-0-1-3-4--|
2:14-------------------------|-------------------------|-------------------------|-------------------------|---------*-*-*-*---------|-0-1-3-4-0-1-3-4-0-1-3-4-|
2:16----------------------------------------------------------|----------------------------------------------------------|----------------------------------------------------------|----------------------------------------------------------|-5-5-5-5-5-5-5-3-3-3-3-3-3-3-1-1-1-1-1-1-1-0-0-0-0--------|-5-5-5-5-5-5-5-3-3-3-3-3-3-3-1-1-1-1-1-1-1-0-0-0-0-0-1-3-4|
2:21----------------------------------------------------------|----------------------------------------------------------|----------------------------------------------------------|----------------------------------------------------------|-5-5-5-5-5-5-5-3-3-3-3-3-3-3-1-1-1-1-1-1-1-0-0-0-0--------|-5-5-5-5-5-5-5-3-3-3-3-3-3-3-1-1-1-1-1-1-1-0-0-0-0-0-1-3-4|
2:26-------------------------------------------------------------|-------------------------------------------------------------|-------------------------------------------------------------|-------------------------------------------------------------|---*-**********---*-**********---*-**********----------------|-5-5-5555555555-3-3-3333333333-1-1-1111111111-0-0-0-0-0-1-3-4|
2:32-------------------------------------------------------------|-------------------------------------------------------------|-------------------------------------------------------------|-------------------------------------------------------------|---*-**********---*-**********---*-**********----------------|-5-5-5555555555-3-3-3333333333-1-1-1111111111-0-0-0-0-16\----|
2:37-------------------------------------------------------------------|-------------------------------------------------------------------|-------------------------------------------------------------------|-------------------------------------------------------------------|*-*-*-*-*-*-*-*-*-*-*-*-*-*-*-*-*-*-*-*-*-*-*-*-*-*-*-*-------4-8-5|0-0-0-0-0-0-0-0-0-0-0-0-0-0-0-0-0-0-0-0-0-0-0-0-0-0-0-0-5-6-7------|
2:42---------------------------------------------------------------|---------------------------------------------------------------|---------------------------------------------------------------|---------------------------------------------------------------|*-*-*-*-*-*-*-*-*-*-*-*-*-*-*-*-*-*-*-*-*-*-*-*-*-*-------4-8-5|0-0-0-0-0-0-0-0-0-0-0-0-0-0-0-0-0-0-0-0-0-0-0-0-0-0-5-6-7------|
2:47---------------------------------------------------------------|---------------------------------------------------------------|---------------------------------------------------------------|---------------------------------------------------------------|*-*-*-*-*-*-*-*-*-*-*-*-*-*-*-*-*-*-*-*-*-*-*-*-*-*-------4-8-5|0-0-0-0-0-0-0-0-0-0-0-0-0-0-0-0-0-0-0-0-0-0-0-0-0-0-5-6-7------|
2:52---------------------------------------------------------------|---------------------------------------------------------------|---------------------------------------------------------------|---------------------------------------------------------------|*-*-*-*-*-*-*-*-*-*-*-*-*-*-*-*-*-*-*-*-*-*-*-*-*-*-------4-8-5|0-0-0-0-0-0-0-0-0-0-0-0-0-0-0-0-0-0-0-0-0-0-0-0-0-0-5-6-7------|
2:58---------------------------------------------------------------|---------------------------------------------------------------|---------------------------------------------------------------|---------------------------------------------------------------|-*-*---*-*--)-*-*-*---*-*-*-8-5-*-*---*-*--)-*-*-*-------4-8-5-|-0-0-5-0-0-6--0-0-0-0-0-0-0-----0-0-5-0-0-6--0-0-0-5-6-7-------|
3:02---------------------------------------------------------------|---------------------------------------------------------------|---------------------------------------------------------------|---------------------------------------------------------------|-*-*---*-*--)-*-*-*---*-*-*-8-5-*-*---*-*--)-*-*-*-------4-8-5-|-0-0-5-0-0-6--0-0-0-0-0-0-0-----0-0-5-0-0-6--0-0-0-5-6-7-------|
3:08---------------------------------------------------------------|---------------------------------------------------------------|---------------------------------------------------------------|---------------------------------------------------------------|------------)---------------8-5------------)-------------4-8-5-|-0-0-5-0-0-6--0-0-0-0-0-0-0-----0-0-5-0-0-6--0-0-0-5-6-7-------|
3:13---------------------------------------------------------------|---------------------------------------------------------------|---------------------------------------------------------------|---------------------------------------------------------------|------------)---------------8-5------------)-------------4-8-5-|-0-0-5-0-0-6--0-0-0-0-0-0-0-----0-0-5-0-0-6--0-0-0-5-6-7-------|
3:18---------------------------------------------------------------|---------------------------------------------------------------|---------------------------------------------------------------|-----------------------------^---------------------------------|------------)-------8-8-8~--8-5------------)-------------4-8-5-|-0-0-5-0-0-6--0-0-0-------------0-0-5-0-0-6--0-0-0-5-6-7-------|
3:24-----------------------------------------------------------|-----------------------------------------------------------|-----------------------------------------------------------|-----------------------------^---------------------------*-|------------)-------8-8-8~--8-5------------)-------*-*-*-5-|-0-0-5-0-0-6--0-0-0-------------0-0-5-0-0-6--0-0-0-5-6-7---|
3:29----------------------------|----------------------------|----------------------------|----------------------------|-*-*-*-5-*-*-*-5-------5----|-5-6-7---5-6-7---5-6-7------|
3:31----------------------------------------------------------|----------------------------------------------------------|----------------------------------------------------------|----------------------------------------------------------|-5-5-5-5-5-5-5-3-3-3-3-3-3-3-1-1-1-1-1-1-1-0-0-0-0--------|-5-5-5-5-5-5-5-3-3-3-3-3-3-3-1-1-1-1-1-1-1-0-0-0-0-0-1-3-4|
3:36----------------------------------------------------------|----------------------------------------------------------|----------------------------------------------------------|----------------------------------------------------------|-5-5-5-5-5-5-5-3-3-3-3-3-3-3-1-1-1-1-1-1-1-0-0-0-0--------|-5-5-5-5-5-5-5-3-3-3-3-3-3-3-1-1-1-1-1-1-1-0-0-0-0-0-1-3-4|
3:41-------------------------------------------------------------|-------------------------------------------------------------|-------------------------------------------------------------|-------------------------------------------------------------|---*-**********---*-**********---*-**********----------------|-5-5-5555555555-3-3-3333333333-1-1-1111111111-0-0-0-0-0-1-3-4|
3:46-------------------------------------------------------------|-------------------------------------------------------------|-------------------------------------------------------------|-------------------------------------------------------------|---*-**********---*-**********---*-**********----------------|-5-5-5555555555-3-3-3333333333-1-1-1111111111-0-0-0-0-0-1-3-4|
3:51----------------------------------------------------------------|----------------------------------------------------------------|----------------------------------------------------------------|----------------------------------------------------------------|-5-*-*-*-5-*-*-3-*-*-*-*-3-*-*-1-*-*-*-*-1-*-*-0-*-*-*-*--------|-5-5-5-5-5-5-5-3-3-3-3-3-3-3-3-1-1-1-1-1-1-1-1-0-0-0-0-0-0-1-3-4|
3:56----------------------------------------------------------------|----------------------------------------------------------------|----------------------------------------------------------------|----------------------------------------------------------------|-5-*-*-*-5-*-*-3-*-*-*-*-3-*-*-1-*-*-*-*-1-*-*-0-*-*-*-*--------|-5-5-5-5-5-5-5-3-3-3-3-3-3-3-3-1-1-1-1-1-1-1-1-0-0-0-0-0-0-1-3-4|
4:02--------------------------------------|-------)------)------)----------------|-----12-----10------8-----------------|------x------x------x-----------------|-5-0-10--3-0-8--1-0-6--1-*-*-*-*-*-*--|-5-0-----3-0----1-0----1-0-0-0-1-3-4--|
4:07----------------------------------------|-------)------)------)------------------|-----12-----10------8-------------------|------x------x------x-------------------|-5-0-10--3-0-8--1-0-6--1-*-*-*-*-*-*-5-0|-5-0-----3-0----1-0----1-0-0-0-1-3-4-5-0|
Tap to rate this tab
 
# A B C D E F G H I J K L M N O P Q R S T U V W X Y Z