Devin Townsend - Zto tab

The other ZTO tab wasn't that worthy so I thought I'd quickly tab the right version so here it is.

BTW, the way the tab is typed out may be a bit off, but the general timing and the notes 
there. So enjoy!

Tuning: Open C - CGCGCE


     PM---------------

E||--------------------------------|C||--------------------------------|G||---------------------7-------7--|C||---------------------7-------7--|G||---------------------5-------5--|C||--0----0--0--0--0---------------|
PM------------- PM PM PM PM
-------------------------------------------------|-------------------------------------------------|-------------------8-----8-----5-----5-----5--7--|-------------------8-----8-----8-----8-----8--7--|-------------------6-----6-----6-----6-----6--5--|--0----0--0--0--0-----0-----0-----0-----0--------|
PM-------------------------------------------
-----------------------------------------------|-----------------------------------------------|-----------------------------------------------|-----------------------------------------------|-----------------------------------------------|--0----2--2--2--2----3--3--3--3----2--2--2--2--|
PM------------------------------------------------------
----------------------------------------------------------|----------------------------------------------------------|----------------------------------------------------------|----------------------------------------------------------|--5--5--5--5------------------3--3--3--3------------------|----------------2--2--2--2------------------2--2--2--2----|
PM---------------
--------------------------------|--------------------------------|---------------------7-------7--|---------------------7-------7--|---------------------5-------5--|--0----0--0--0--0---------------|
PM------------- PM PM PM PM
----------------------------------------------------|----------------------------------------------------|----------------------8-----8-----5-----5-----5--7--|----------------------8-----8-----8-----8-----8--7--|----------------------6-----6-----6-----6-----6--5--|-----0----0--0--0--0-----0-----0-----0-----0--------|
PM------------------------------------------
-------------------------------------------------|-------------------------------------------------|-------------------------------------------------|-------------------------------------------------|-------------------------------------------------|--0----2--2--2--2----3--3--3--3----2--2--2--2----|
PM----------------------------------------------------
----------------------------------------------------------|----------------------------------------------------------|----------------------------------------------------------|----------------------------------------------------------|--5--5--5--5------------------3--3--3--3------------------|----------------2--2--2--2------------------2--2--2--2----|
PM-------------------------------
-----------------------------------------------------|-----------------------------------------------------|-----------------------------------------------------|-----------------------------------------------------|---------------------2--3--5-5----3--2h-3p-2---------|--3----3--3--3--3-------------------------------5----|
PM-------------------------------------------------------
-------------------------------------------------------------|-------------------------------------------------------------|-------------------------------------------------------------|--------------------------------------2--2--2--2--2--2--2--2-|---------------------2--3--5--5----3-------------------------|--3-3-3-3-3-3-3-3--------------------------------------------|
PM-------------------------------
-----------------------------------------------------|-----------------------------------------------------|-----------------------------------------------------|-----------------------------------------------------|---------------------2--3--5-5----3--2h-3p-2---------|--3----3--3--3--3-------------------------------5----|
PM------------------------------------------------------------------
----------------------------------------------------------------------|----------------------------------------------------------------------|----------------------------------------------------------------------|-------------------------------------------------2--2--2--2--2--2--2--|--------------------------------2--3--5--5----3-----------------------|--0--0--0--0--0--0--0--0----------------------------------------------|
PM----------------------------
-----------------------------------------------------|-----------------------------------------------------|-----------------------------------------------------|---3-------------------------------------------------|---------------------2--3--5-5----3--2h-3p-2---------|------3--3--3--3-------------------------------5-----|
PM-------------------------------
-----------------------------------------------------|-----------------------------------------------------|-----------------------------------------------------|-----------------------------------------------------|---------------------2--3--5-5----3--2h-3p-2---------|--3-3-3-3-3-3-3-3-----------------------------5------|
PM------------------------------------------
-------------------------------------------------------------|-------------------------------------------------------------|-------------------------------------------------------------|-------------------------------------------------------------|--------------------------------2--3--5-5----3--2h-3p-2------|--0--0--0--0--0--0--0--0-----------------------------------5-|
PM-------------------------------------------------
------------------------------------------------------|------------------------------------------------------|------------------------------------------------------|------------------------------------------------------|---------------------2--3--5--5--5--5--5--5--5--5--5--|--0-0-0-0-0-0-0-0-------------------------------------|
PM-------------
--------------------------------|--------------------------------|---------------------7-------7--|---------------------7-------7--|---------------------5-------5--|--0----0--0--0--0---------------|
PM------------- PM PM PM PM
--------------------------------------------------||--------------------------------------------------||------------------8-----8-----5-----5-----5--(7)--||------------------8-----8-----8-----8-----8--(7)--||------------------6-----6-----6-----6-----6--(5)--||--0----0--0--0--0----0-----0-----0-----0------0---||
Greetings humans... I am Ziltoid, the Omniscient.
Tap to rate this tab
 
# A B C D E F G H I J K L M N O P Q R S T U V W X Y Z