Dewolff - Gold And Seaweed tab version 1

IntroStarts with keyboard and guitar--------------------------------------|--------------------------------------|--------------------------------------|--5---3-5---3-5---3-5-----------------|--5---3-5---3-5---3-5-----------------|--3---1-3---1-3---1-3-----------------|
When drums enter--------------------------------------|--------------------------------------|--------------------------------------|--8-5-5-8-5---5-5---------------------| 3x------------8-----8-5-----------------|----------------------8-6-------------|
--------------------------------------|--------------------------------------|--------------7-----------------------|--8-5-5-8-5---------------------------|------------8-------------------------|--------------------------------------|
Verse1--------------------------------------|--------------------------------------|--------------------------------------|--3--5--------------------------------| 7x--3--5--------------------------------|--1--3--------------------------------|
--------------------------------------|--------------------------------------|--------------------------------------|--8-5-5-8-5---5-5---------------------| 3x------------8-----8-5-----------------|----------------------8-6-------------|
--------------------------------------|--------------------------------------|--------------7-----------------------|--8-5-5-8-5---------------------------|------------8-------------------------|--------------------------------------|
--------------------------------------|--------------------------------------|--------------------------------------|--8-5-5-8-5---5-5---------------------| 3x------------8-----8-5-----------------|----------------------8-6-------------|
--------------------------------------|--------------------------------------|--------------7-----------------------|--8-5-5-8-5---------------------------|------------8-------------------------|--------------------------------------|
Verse2--------------------------------------|--------------------------------------|--------------------------------------|--3--5--------------------------------| 7x--3--5--------------------------------|--1--3--------------------------------|
--------------------------------------|--------------------------------------|--------------------------------------|--8-5-5-8-5---5-5---------------------| 3x------------8-----8-5-----------------|----------------------8-6-------------|
--------------------------------------|--------------------------------------|--------------7-----------------------|--8-5-5-8-5---------------------------|------------8-------------------------|--------------------------------------|
--------------------------------------|--------------------------------------|--------------------------------------|--8-5-5-8-5---5-5---------------------| 3x------------8-----8-5-----------------|----------------------8-6-------------|
--------------------------------------|--------------------------------------|--------------7-----------------------|--8-5-5-8-5---------------------------|------------8-------------------------|--------------------------------------|
Interlude------------------------------------------------------|--------------------------------------------------6---|--------------------------5-5-5-5-5-5-8-8-8-8-8-8---8-|--5-5-5-5-5-5-8-8-8-8-8-8-----------------------------|------------------------------------------------------|------------------------------------------------------|
Then solo starts, but that's to difficult for me to figure that out.
After the solo-------------------------------------|-------------------------------------|-------------------------------------|------------5-8-5--------------------|--------5-8-------8-5-8-5-------5----|--3-6-8-------------------8-6-8------|
-----------------------------------------|-----------------------------------------|------------------------5---h7-5---5-----|------------5-8-5-8-5-8---8------8---8---|--------5-8------------------------------|--3-6-8----------------------------------|
-------------------------------------|-------------------------------------|-------------------------------------|------------5-8-5--------------------|--------5-8-------8-5-8-5-------5----|--3-6-8-------------------8-6-8------|
-----------------------------------------|-----------------------------------------|------------------------5---h7-5---5-----|------------5-8-5-8-5-8---8------8---8---|--------5-8------------------------------|--3-6-8----------------------------------|
Keyboard solo:-----------------------------------------|-----------------------------------------|--5--3-5---3-5--3-5--3-5--3-5--3-5--3-5--|--5--3-5---3-5--3-5--3-5--3-5--3-5--3-5--|--3--1-3---1-3--1-3--1-3--1-3--1-3--1-3--|
Outro--------------------------------------|--------------------------------------|--------------------------------------|--8-5-5-8-5---5-5---------------------| 3x------------8-----8-5-----------------|----------------------8-6-------------|
--------------------------------------|--------------------------------------|--------------7-----------------------|--8-5-5-8-5---------------------------|------------8-------------------------|--------------------------------------|
--------------------------------------|--------------------------------------|--------------------------------------|--8-5-5-8-5---5-5---------------------| 3x------------8-----8-5-----------------|----------------------8-6-------------|
--------------------------------------|--------------------------------------|--------------7-----------------------|--8-5-5-8-5---------------------------|------------8-------------------------|--------------------------------------|
--------------------------------------|--------------------------------------|--------------------------------------|-------------------------5------------|-------------------------5------------|--3-6-8-10-11-6-3--------3------------|
Tap to rate this tab
 
# A B C D E F G H I J K L M N O P Q R S T U V W X Y Z