Dido - Life For Rent tab version 2

Tabbed & Arranged by: Josh Daley

Tuning: E A D G B E (Standard) - Capo 4



Intro &  1st Verse:

----------0---0------------1---1--|----------1---1------------1---1--|--------2-----2---------2------2--|-----2--------2------3---------3--|--0-----------0---3------------3--|------------------1------------1--|
1st Pre-chorus:
-----------1---1------------3---3--|--------3--3---3------------3---3--|-----2---------2---------4------4--|--0------------0------3---------3--|--------------------------------5--|-------------------3------------3--|
Chorus:
--0----3----1----|--1----3----1----|--0----0----2----|--2----0----3----|--3----2----3----|-------3----1----|
--0----3----1---3--|--1----3----1---0--|--0----0----2---0--| x2--2----0----3---0--|--3----2----3---2--|-------3----1---3--|
--0----3----1----|--1----3----1----|--0----0----2----|--2----0----3----|--3----2----3----|-------3----1----|
2nd Verse:
--0----1----|--1----1----|--2----2----|--2----3----|--0----3----|-------1----|
2nd Pre-chorus:
--1----3----|--3----3----|--2----4----| (Crescendo)--0----3----|-------5----|-------3----|
Bridge:
--0----3----1----3----|--1----3----3----0----|--0----0----2----0----|--2----0----0----0----|--3----2---------2----|-------3---------3----|
--0----3----1----3----1----3----|--1----3----3----0----3----0----|--0----0----2----0----2----0----| ~ Play chorus x 1 ~--2----0----0----0----0----0----|--3----2---------2---------x----|-------3---------3---------3----|
Outro chorus:
--0----3----1----|--1----3----1----|--0----0----2----|--2----0----3----|--3----2----3----|-------3----1----|
--0----3----1---3--|--1----3----1---0--|--0----0----2---0--| x2--2----0----3---0--|--3----2----3---2--|-------3----1---3--|
--0----3----1----|--1----3----1----|--0----0----2----| x3--2----0----3----|--3----2----3----|-------3----1----|
Tap to rate this tab
 
# A B C D E F G H I J K L M N O P Q R S T U V W X Y Z