Dillinger Escape Plan - The Running Board tab

DILLINGER ESCAPE PLAN - THE RUNNING BOARD (Calculating Infinity)

STANDARD TUNING - EADGBe


---------------------------------------------------------------------------------------|-6---------------------------------6-6------------------------------------6-6----------|-5---------------------------------5-5------------------------------------5-5----------|-4--------------6-6-6--------------4-4----------------6-6-6---------------4-4----5-5-4-|---4-5-4-4-5-4--5-5-5--4-5-4-4-5-4-------4-5-4-4-5-4--5-5-5--4-5-4-4-5-4---------4-4-3-|---4-5-4-4-5-4--4-4-4--4-5-4-4-5-4-------4-5-4-4-5-4--4-4-4--4-5-4-4-5-4---------3-3-2-|
---------------------------------------8-7-6-5-----------------|-6----------------------------------6----------8-7-6-5---------|-5----------------------------------5------------------8-7-6-5-|-4--------------6-6-6---------------4--------------------------|---4-5-4-4-5-4--5-5-5--4-5-4-4-5-4-----------------------------|---4-5-4-4-5-4--4-4-4--4-5-4-4-5-4-----------------------------|
--------------------------------------------------|-6-----------------------------------6-6----------|-5-----------------------------------5-5----------|-4---------------6-6-6---------------4-4----5-5-4-|----4-5-4-4-5-4--5-5-5--4-5-4-4-5-4---------4-4-3-|----4-5-4-4-5-4--4-4-4--4-5-4-4-5-4---------3-3-2-|
------------------------------------------------------------------------------|-6----------------------------------6-6-----------------------------------6-6-|-5----------------------------------5-5-----------------------------------5-5-|-4--------------6-6-6---------------4-4---------------6-6-6---------------4-4-|---4-5-4-4-5-4--5-5-5--4-5-4-4-5-4-------4-5-4-4-5-4--5-5-5--4-5-4-4-5-4------|---4-5-4-4-5-4--4-4-4--4-5-4-4-5-4-------4-5-4-4-5-4--4-4-4--4-5-4-4-5-4------|
----------------------------------------------------------------------------|----------------------------------6-6-----------------------------------6-6-|----------------------------------5-5-----------------------------------5-5-|--------------6-6-6---------------4-4---------------6-6-6---------------4-4-|-4-5-4-4-5-4--5-5-5--4-5-4-4-5-4-------4-5-4-4-5-4--5-5-5--4-5-4-4-5-4------|-4-5-4-4-5-4--4-4-4--4-5-4-4-5-4-------4-5-4-4-5-4--4-4-4--4-5-4-4-5-4------|
------------------------------|------------------------------|------------------------------|--------------------------3/6-|---3-----------3-2---1----2/5-|-0---2-0-5-4-3-----0---0--1/4-|
-----------------------------------|-------------------------------6-6-|-------------------------------5-5-|--------------------------3/6--4-4-|---3-----------3-2---1----2/5------|-0---2-0-5-4-3-----0---0--1/4------|
------------------------------|------------------------------|------------------------------|--------------------------3/6-|---3-----------3-2---1----2/5-|-0---2-0-5-4-3-----0---0--1/4-|
----------------------------------|----------------------------------|----------------------------------|-----------------------------3/6--|--2-2-2-2-2-2-2-2-2-2-2-2-2--2/5--|--0-0-0-0-0-0-0-0-0-0-0-0-0--1/4--|PM--------------------------------|
---------------------------------------------------------------------|---------------------------------6-6-----6-6-----6-6-6-6-6-6---------|---------------------------------5-5-----5-5-----5-5-5-5-5-5---------|----------------------------3/6--4-4-----4-4-----4-4-4-4-4-4----3/6--|---3-----------3-2---1------2/5---------------------------------2/5--|-0---2-0-5-4-3-----0---0-0--1/4------0-0-----0-0-------------0--1/4--| pm--- --- --------|
-----------------------------------|-----------------------------------|-----------------------------------|----------------------------3/6----|---3-----------3-2---1------2/5--2-|-0---2-0-5-4-3-----0---0-0--1/4--0-|
-----------------------------|------6-6-----6-6-----6-6----|------5-5-----5-5-----5-5----|-3/6--4-4-----4-4-----4-4----|-2/5-------------------------|-1/4------0-0-----0-0-----0--| pm--- --- ---|
-----------------------------|------6-6-----6-6-----6-6----|------5-5-----5-5-----5-5----|-3/6--4-4-----4-4-----4-4----|-2/5-------------------------|-1/4------0-0-----0-0-----0--| pm--- --- ---|
---------------------------------|------8--6-6-----6-6----6-6------|------7--5-5-----5-5----5-5------|-3/6--6--4-4-----4-4----4-4------|-2/5-----------------------------|-1/4---------0-0-----0-0----0-0--| pm--- --- -----|
-------------------------------|------6-6------6-6-----6-6-----|------5-5------5-5-----5-5-----|-3/6--4-4------4-4-----4-4-----|-2/5---------------------------|-1/4-------0-0------0-0----0---| pm--- --- ----|
-----------------|-----------------|------------3----|-3/6--------2----|-2/5--------1----|-1/4-------------|
-0--------3--3-3----2-2-2----0-------------------------|-0---------------------------0--------3--3--3b---------|-0---------------------------0--------------------0----|-2---------------------------2-------------------------|-2---------------------------2-------------------------|-------------------------------------------------------|
[repeat copious amount of times]--------------------|--------------------|---3-2-0------------|--------------------|-1------------------|--------------------| _______ let ring
-------------------------------------------------|-------------------------------------------------|-------------------------------------------------|-4-4-x-x-4-x-x-x-x-4-x-x-4-4-x-x-4-x-x-x-x-4-x-x-|-3-3-x-x-3-x-x-x-x-3-x-x-3-3-x-x-3-x-x-x-x-3-x-x-|-2-2-x-x-2-x-x-x-x-2-x-x-2-2-x-x-2-x-x-x-x-2-x-x-|
----------------------------------------------|----------------------------------------------|----------------------------------------------|-4-4-x-x-4-x-x-x-x-4-x-x-4-4-x-x-7--7-7-7-7-7-|-3-3-x-x-3-x-x-x-x-3-x-x-3-3-x-x-6--6-6-6-6-6-|-2-2-x-x-2-x-x-x-x-2-x-x-2-2-x-x-5--5-5-5-5-5-|
-------------------------------------------------|-------------------------------------------------|-------------------------------------------------|-4-4-x-x-4-x-x-x-x-4-x-x-4-4-x-x-4-x-x-x-x-4-x-x-|-3-3-x-x-3-x-x-x-x-3-x-x-3-3-x-x-3-x-x-x-x-3-x-x-|-2-2-x-x-2-x-x-x-x-2-x-x-2-2-x-x-2-x-x-x-x-2-x-x-|
----------------------------------------------|----------------------------------------------|----------------------------------------------|-4-4-x-x-4-x-x-x-x-4-x-x-4-4-x-x-7--7-7-7-7-7-|-3-3-x-x-3-x-x-x-x-3-x-x-3-3-x-x-6--6-6-6-6-6-|-2-2-x-x-2-x-x-x-x-2-x-x-2-2-x-x-5--5-5-5-5-5-|
-------------------------------------------------|-------------------------------------------------|-------------------------------------------------|-4-4-x-x-4-x-x-x-x-4-x-x-4-4-x-x-4-x-x-x-x-4-x-x-|-3-3-x-x-3-x-x-x-x-3-x-x-3-3-x-x-3-x-x-x-x-3-x-x-|-2-2-x-x-2-x-x-x-x-2-x-x-2-2-x-x-2-x-x-x-x-2-x-x-|
----------------------------------------------|----------------------------------------------|----------------------------------------------|-4-4-x-x-4-x-x-x-x-4-x-x-4-4-x-x-7--7-7-7-7-7-|-3-3-x-x-3-x-x-x-x-3-x-x-3-3-x-x-6--6-6-6-6-6-|-2-2-x-x-2-x-x-x-x-2-x-x-2-2-x-x-5--5-5-5-5-5-|
-------------------------------------------------|-------------------------------------------------|-------------------------------------------------|-4-4-x-x-4-x-x-x-x-4-x-x-4-4-x-x-4-x-x-x-x-4-x-x-|-3-3-x-x-3-x-x-x-x-3-x-x-3-3-x-x-3-x-x-x-x-3-x-x-|-2-2-x-x-2-x-x-x-x-2-x-x-2-2-x-x-2-x-x-x-x-2-x-x-|
----------------------------------------------|----------------------------------------------|----------------------------------------------|-4-4-x-x-4-x-x-x-x-4-x-x-4-4-x-x-7--7-7-7-7-7-|-3-3-x-x-3-x-x-x-x-3-x-x-3-3-x-x-6--6-6-6-6-6-|-2-2-x-x-2-x-x-x-x-2-x-x-2-2-x-x-5--5-5-5-5-5-|
-0--------3--3-3----2-2-2----0--------|-0---------------------------0--------|-0---------------------------0--------|-2---------------------------2--------|-2---------------------------2--------|--------------------------------------|
------------------------------------------------------------------------------|-6----------------------------------6-6-----------------------------------6-6-|-5----------------------------------5-5-----------------------------------5-5-|-4--------------6-6-6---------------4-4---------------6-6-6---------------4-4-|---4-5-4-4-5-4--5-5-5--4-5-4-4-5-4-------4-5-4-4-5-4--5-5-5--4-5-4-4-5-4------|---4-5-4-4-5-4--4-4-4--4-5-4-4-5-4-------4-5-4-4-5-4--4-4-4--4-5-4-4-5-4------|
----------------------------------------------------------------------------|----------------------------------6-6-----------------------------------6-6-|----------------------------------5-5-----------------------------------5-5-|--------------6-6-6---------------4-4---------------6-6-6---------------4-4-|-4-5-4-4-5-4--5-5-5--4-5-4-4-5-4-------4-5-4-4-5-4--5-5-5--4-5-4-4-5-4------|-4-5-4-4-5-4--4-4-4--4-5-4-4-5-4-------4-5-4-4-5-4--4-4-4--4-5-4-4-5-4------|
----------------------------------------------------------------------------|----------------------------------6-6-----------------------------------6-6-|----------------------------------5-5-----------------------------------5-5-|--------------6-6-6---------------4-4---------------6-6-6---------------4-4-|-4-5-4-4-5-4--5-5-5--4-5-4-4-5-4-------4-5-4-4-5-4--5-5-5--4-5-4-4-5-4------|-4-5-4-4-5-4--4-4-4--4-5-4-4-5-4-------4-5-4-4-5-4--4-4-4--4-5-4-4-5-4------|
-------------------------------|-------------------------------|---------7---------------7-----|-5-5---4-6-5----5-5---4--6--5--|-4-4---3-5-4----4-4---3--5--4--|-3-3-0-2---3----3-3-0-2-----3--|
---------------------------------|---------------------------------|---------7-----------------------|-5-5---4-6-5----5-5---4--[4]--5--|-4-4---3-5-4----4-4---3-------4--|-3-3-0-2---3----3-3-0-2-------3--|
-------------------------------|-------------------------------|---------7---------------7-----|-5-5---4-6-5----5-5---4--6--5--|-4-4---3-5-4----4-4---3--5--4--|-3-3-0-2---3----3-3-0-2-----3--|
-------------------------------|-------------------------------|---------7---------------7-----|-5-5---4-6-5----5-5---4--6--5--|-4-4---3-5-4----4-4---3--5--4--|-3-3-0-2---3----3-3-0-2-----3--|
-------------------------------|-------------------------------|---------7---------------7-----|-5-5---4-6-5----5-5---4--6--5--|-4-4---3-5-4----4-4---3--5--4--|-3-3-0-2---3----3-3-0-2-----3--|
-------------------------------|-------------------------------|---------7---------------7-----|-5-5---4-6-5----5-5---4--6--5--|-4-4---3-5-4----4-4---3--5--4--|-3-3-0-2---3----3-3-0-2-----3--|
-------------------------------|-------------------------------|---------7---------------7-----|-5-5---4-6-5----5-5---4--6--5--|-4-4---3-5-4----4-4---3--5--4--|-3-3-0-2---3----3-3-0-2-----3--|
-------------------------------|-------------------------------|---------7---------------7-----|-5-5---4-6-5----5-5---4--6--5--|-4-4---3-5-4----4-4---3--5--4--|-3-3-0-2---3----3-3-0-2-----3--|
Tap to rate this tab
 
# A B C D E F G H I J K L M N O P Q R S T U V W X Y Z