Dillinger Escape Plan – Jim Fear tab

E||--------------------------||--------------------------|B||--------------------------||--------------------------|G||--7-6-3-x-----------------||-7-6-8-7-6-8-7-6-3-7-6-3-x|D||--x-x-x-x-----------------||-x-x-x-x-x-x-x-x-x-x-x-x-x|A||--5-4-1-x-----------------||-5-4-6-5-4-6-5-4-1-5-4-1-x|E||--------------------------||--------------------------|
|--------------------------||--------------------------||--------------------------||--------------------------||--------------------------||-------------5-5-5-5------||-----------------4--------||-------------4-4-4-4------||-4-4-4-6-4-3-3-6--4-6-4-3-||-4-4-4-6-4-3-3-3-3-3------||--3-----------------------||--3-----------------------|
|--------------------------||--------------------------||--------------------------||--------------------------||--2-3---------------------||--------------------------||-----3-4------------------||---6--5---6--7------------||--------2-3---------------||---5--4---5--4------------||-----------2--------------||---4--3---4--3------------
|------------------------------------------------------------||---------------------------------------10-12-9-11-----------||---------7-10-------7-10-6-9-------7-10---------------------||-----6-9---------6-9------------6-9-------------------------||--5-8---------5-8------------5-8----------------------------||------------------------------------------------------------|
|-------------------13-13-13---||-------------------12-12-12---||--10-10-10-12-10-9-10-10-10---||----9-------------------------||------------------------------||------------------------------|
|--------------------------||-9-11-13-11-9-------------||--------------------------| Repeat and gradually move up 3 frets|--------------------------||--------------------------||--------------------------|
|--------------------------||--------------------------||-15----15-----15----15----||-14----14-----14----14----||-13-00-130--0-13-00-13----||----00---0--0----00-------|
|--------------------------||--------------------------||--------------------------||--------------------------||--------------------------||------6-6-----------------||--4-5-4---4-5-6-----------||--5-5---------------------||--3-4-3---3-4-5-----------||--------------------------||--2-3-2-0-2-3-4-----------||--------------------------|
|--------------------------||--------------------------||--------------------------||--------------------------||-5---5---5----------------||--55-4-55-4---------------||-4---4---4----------------||--44-3-44-3---------------||-3-2-3-2-3-2--------------||--33-2-33-2---------------||---3---3---3--------------||--------------------------|
|--------------------------||--------------------------||--------------------------||--5~----------------------||--4~----------------------||--3~----------------------|
|--------------------------------||--------------------------20----||--------------------------------||---------------------16-19--19--||-------6---------6-5-4-3-4-3-2--||----6-6---------13-16-----------||-----5---5-4-3-2----------5-4-3-||---5-5-5-4-12-15----------------||---4----------------------------||--4-----------------------------||-3------------------------------||-3------------------------------|
Please rate this tab:
x1.0