Dinosaur Jr - Raisans tab

Raisans

Intro / Chorus

-----------------------------------------------|---------------------------3-3-3-3-3-3-3-------|-------------5-5-5-5-5-5-5-2-2-2-2-2-4-4-------|-2-2-2-2-2-2-5-5-5-5-5-5-5-0-0-0-0-0-4-4----0--|-2-2-2-2-2-2-3-3-3-3-3-3-3-----------2-2-0h2---|-0-0-0-0-0-0---------------------------------3-|
X2---------------------------3-3-3-3-3-2-2-2-2-2-2-2-|---------------------------3-3-3-3-3-3-3-3-3-3-3-3-|-------------5-5-5-5-5-5-5-2-2-2-2-2-2-2-2-2-2-2-2-|-2-2-2-2-2-2-5-5-5-5-5-5-5-0-0-0-0-0---------------|-2-2-2-2-2-2-3-3-3-3-3-3-3-------------------------|-0-0-0-0-0-0---------------------------------------|
Verse
-----------------------5-5-5-5-5-5-5-4-4-4-|-----------------------3-3-3-3-3-3-3-3-3-3-|-9-9-9-9-9-9-9-9-9-9-9-2-2-2-2-2-2-2-2-2-2-|-9-9-9-9-9-9-9-9-9-9-9-0-0-0-0-0-0-0-0-0-0-|-7-7-7-7-7-7-7-7-7-7-7-0-0-0-0-0-0-0-0-0-0-|-0-0-0-0-0-0-0-0-0-0-0---------------------|
-----------------------5-5-5-5-5-5-44-4--~~|-----------------------3-3-3-3-3-3-33-3--~~|-9-9-9-9-9-9-9-9-9-9-9-2-2-2-2-2-2-22-2--~~|-9-9-9-9-9-9-9-9-9-9-9-0-0-0-0-0-0-00-0--~~|-7-7-7-7-7-7-7-7-7-7-7-0-0-0-0-0-0-00-0--~~|-0-0-0-0-0-0-0-0-0-0-0-------------------~~|
-----------------------5-5-4-4-0-0-0-~~|-----------------------3-3-3-3-3-3-3-~~|-9-9-9-9-9-9-9-9-9-9-9-2-2-2-2-2-2-2-~~|-9-9-9-9-9-9-9-9-9-9-9-0-0-0-0-0-0-0-~~|-7-7-7-7-7-7-7-7-7-7-7-0-0-0-0-0-0-0-~~|-0-0-0-0-0-0-0-0-0-0-0---------------~~|
-----------------------5-5-5-5-5-5-44-4--~~|-----------------------3-3-3-3-3-3-33-3--~~|-9-9-9-9-9-9-9-9-9-9-9-2-2-2-2-2-2-22-2--~~|-9-9-9-9-9-9-9-9-9-9-9-0-0-0-0-0-0-00-0--~~|-7-7-7-7-7-7-7-7-7-7-7-0-0-0-0-0-0-00-0--~~|-0-0-0-0-0-0-0-0-0-0-0-------------------~~|
Pre Chorus-0--0-------- ----------------------------------------------------------------|-1--1-------- -1-1-1-1-1-1-1-1-1-1-1-1-----8-8-8-8-8-8-8----------------------|-0--0-------- X3 -0-0-0-0-0-0-0-0-0-0-0-0-----7-7-7-7-7-7-7----------------------|-2--2------0- -2-2-2-2-2-2-2-2-2-2-2-2-------------------11h12p11h12p11h12p11-|-3--3----9--- -3-3-3-3-3-3-3-3-3-3-3-3----------------------------------------| pick slide--------7-7-- --------------------------0-0-x-x-x-x-x-x-----------------------|
Fill After Chorus---------------|---------------|-9-9-9-9-9-7-9-|-9-9-9-9-9-7-9-|-7-7-7-7-7-5-7-|---------------|
Verse 2-1-1-1-1-1-3-3-3-3-3-3-3-1-1-1-1-1-------3-3-3-3-|-1-1-1-1-1-3-3-3-3-3-3-3-1-1-1-1-1-1-1-1-3-3-3-3-|-2-2-2-2-2-0-0-0-0-0-0-0-2-2-2-2-2-0-0-0-0-0-0-0-| X4-3-3-3-3-3-0-0-0-0-0-0-0-3-3-3-3-3-2-2-2-0-0-0-0-|-----------2-2-2-2-2-2-2-----------3-3-3-2-2-2-2-|-----------3-3-3-3-3-3-3-----------------3-3-3-3-|
Quiet Part
--2-0-2-----------5~~0-0-3---~~--0-0---3-3/5-555-3~~1-0-3---~~------------------2~~0-0-2~~-~~ X2---------------------2-2-0---~~---------------------3-3-2---~~-----------------------------~~
Solo(2:35-2:41)-15p12-15p12-15p12-----------------------------------------|------------------15b(17)-15b(17)-15-12--------------------|---------------------------------------14b(16)-12h14p12-11-|-----------------------------------------------------------|-----------------------------------------------------------|-----------------------------------------------------------|
(2:41-2:47)-------------------------------------------------------------------|-------------------------------------------------------------------|----------11-12-14-14b(16)-12h14p12-11-12-11-12-11-----------------|-14-12-14------------------------------------------12--------12-14-|-----------------------------------------------------14-12-14------|-------------------------------------------------------------------|
(2:47-2:53)-------------------------------------------------15b(17)-15-12-----------|-------------------------------15p12-15p12-15p12---------------15-12-----|-7-9-9-11-11-12-11-12-11-12-14---------------------------------------14--|-------------------------------------------------------------------------|-------------------------------------------------------------------------|-------------------------------------------------------------------------|
(2:53-2:57) With all these bends you have to listen to how J times them (they're not very big bends)----------------------------------------------------------------|-----------------------------------------15b-15b-15b-15b-15b-15-|-14b-14b-14b-14b-14b-16b-16b-16b-16b-16b------------------------|----------------------------------------------------------------|----------------------------------------------------------------|----------------------------------------------------------------|
(2:57-3:04) Bend Individually but each bend gets gradually bigger then released----------------------------------------14h15-14h15-17b-15-14-------|-17b-17b-17b-17b-17b-17b-17b-17b-r17-17-----------------------15-15-|--------------------------------------------------------------------|--------------------------------------------------------------------|--------------------------------------------------------------------|--------------------------------------------------------------------|
(3:04-3:10)-------------------------------------------------|-------------------------------------------------|-/9-7-9-9b(10)-7-9-9b(11)-7h9p7------7--7--7-----|--------------------------------9---9--9--9--9---|---------------------------------10--------------|-------------------------------------------------|
(3:10-3:18)-------------------------------------------------------------------------------|-------------------------------------------------------------------------------|-12p11-12p11------12p11-12p11-------12p11-12p11-14-14b(16)-16-14b(16)-fade out-|------------14-14-------------12-12--------------------------------------------|-------------------------------------------------------------------------------|-------------------------------------------------------------------------------|
Credit to alicemudgarden_jr from freakscene.net
Tap to rate this tab
 
# A B C D E F G H I J K L M N O P Q R S T U V W X Y Z