Dir En Grey - 304 tab

1:01 ------------------|------------------|-----------------------------------------|------------------|------------------|---------------------2-------------------|------------------|------------------|-------------3--2------------------------|------------------|------------------|-------3--2------------------------------|------------------|------------------|----0------------------------------------|
------------------------|-------------1--0----5--|----4-5--4-------------------|------------------------|----1--0--1-------------|-----------6--5--------------|--1------------2--1--2--|------------------------|-----------------5--4-----2--|-------3--2-------------|------------------------|-----------------------5-----|------------------------|------------------------|-----------------------------|------------------------|------------------------|-----------------------------|
------------------------|-----------------------------|------------------------|-----------------------------|---------------------2--|--1-2--1------------1--2--1--|-------------3--2-------|---------3--2--3-------------|-------3--2-------------|-----------------------------|----0-------------------|-----------------------------|
----5--4-5--4----------------|----5-4-5-4----------------|--0--------------0-0-|--------------6--5-----------|------------6--5-----5--6--|--0--------------0-0-|--------------------5--4-----|------------------5--------|---------------------|--------------------------5--|---------------------------|---------------------|-----------------------------|---------------------------|---------------------|-----------------------------|---------------------------|---------------------|
----0--0--0--0--0--0--0--0--0--0--|--1----1--1--1-1--1-1--1-1--1--1--|----0--0--0--0--0--0--0--0--0--0--|--1----1--1--1-1--1-1--1-1--1--1--|----------------------------------|----------------------------------|----------------------------------|----------------------------------|----------------------------------|----------------------------------|----------------------------------|----------------------------------|
--1--1--1--1--1--1-1--1-1--1-1--1--1--1--|--0------0--0-0--0-0--0--0--0--0--0--|--1--1--1--1--1--1-1--1-1--1-1--1--1--1--|--0------0--0-0--0-0--0--0--0--0--0--|-----------------------------------------|-------------------------------------|-----------------------------------------|-------------------------------------|-----------------------------------------|-------------------------------------|-----------------------------------------|-------------------------------------|
--0--0--0--0--0--0--0--0--0--0--0--0--|--1--1--1--1--1--1--1--1--1--1--1--|--0--0--0--0--0--0--0--0--0--0--0--0--|--1--1--1--1--1--1--1--1--1--1--1--|--------------------------------------|-----------------------------------|--------------------------------------|-----------------------------------|--------------------------------------|-----------------------------------|--------------------------------------|-----------------------------------|
--1--1--1--1--1--1--3--1-1--1--|--0------0--0-0--0-0--0-0--0--0--0--|--1--1--1--1--1--1--3--1-1--1--|--0------0--0-0--0-0--0-0--0--0--0--|-------------------------------|------------------------------------|-------------------------------|------------------------------------|-------------------------------|------------------------------------|-------------------------------|------------------------------------|
--0--0--0--0--0--0-0--0-0--0-0--0--0--0--|--1----1--1--1-1--1-1--1-1--1--1--|--0--0--0--0--0--0-0--0-0--0-0--0--0--0--|--1----1--1--1-1--1-1--1-1--1--1--|-----------------------------------------|----------------------------------|-----------------------------------------|----------------------------------|-----------------------------------------|----------------------------------|-----------------------------------------|----------------------------------|
--1--1-1-1--1--1-1--1-1--1-1--1--1--|--0--0--0--0--0--0--0--0--0--0--0--|--1--1-1-1--1--1-1--1-1--1-1--1--1--|--0--0--0--0--0--0--0--0--0--0--0--|------------------------------------|-----------------------------------|------------------------------------|-----------------------------------|------------------------------------|-----------------------------------|------------------------------------|-----------------------------------|
--0-0-0--0-0--0-0--0--0--0--0--0--0--0--0--|--1--1--1--1--1--1--1--1--1--1--|--0-0-0--0-0--0-0--0--0--0--0--0--0--0--0--|--1--1--1--1--1--1--1--1--1--1--|-------------------------------------------|--------------------------------|-------------------------------------------|--------------------------------|-------------------------------------------|--------------------------------|-------------------------------------------|--------------------------------|
--0--0--0--0--0--0--------|--0------0--0--0--0--0----|--0--0--0--0--0--0--------|--1------0--0--0--1--1----|--------------------------|--2------2--2--2--2--2----|--------------------------|--2------2--2--2--2--2----|--------------------------|--------------------------|--------------------------|--------------------------|
--0------3--3--3--0--0----|--------------------------0--|--1------1--1--1--1--1----|--3--3--3--3--3--3--3--3-----|--2------2--2--2--2--2----|--4--5--4--5--5--5--4--4-----|--3------3--3--3--3--3----|--5--5--5--5--5--5--5--5--2--|--------------------------|-----------------------------|--------------------------|-----------------------------|
--0-----0--4--4--0--0----|--0------0--0--0--0--0----|--0------3--3--3--0--0----|-----3-------------------|--1------0--0--0--1--1----|--1------1--1--1--1--1----|-------------------------|--2------2--2--2--2--2----|--2------2--2--2--2--2----|--2--0--2--6--6--2--2----|--2------2--2--2--2--2----|--3------3--3--3--3--3----|-------------------------|--------------------------|--------------------------|-------------------------|--------------------------|--------------------------|
----------------------------|---------0--0--0--0-------|--3--3--3--3--3--3--3--3----|--0------0--0--0--0--0----|--4--5--4--5--5--5--4--4----|--0------------------7----|--5--5--5--5--5--5--5--5----|--------------------------|----------------------------|--------------------------|----------------------------|--------------------------|
--0------0--0--0--0--0----|--0------3--3--3--0--0----|--1------0--0--0--1--1----|--1------1--1--1--1--1----|--2------2--2--2--2--2----|--2------2--2--2--2--2----|--2------2--2--2--2--2----|--3------3--3--3--3--3----|--------------------------|--------------------------|--------------------------|--------------------------|
----------------------------|--0--------4--4--0--0----|--3--3--3--3--3--3--3--3----|-----3--3----------------|--4--5--4--5--5--5--4--4----|-------------------------|--5--5--5--5--5--5--5--5----|--2--0--0--6--6--2--2----|----------------------------|-------------------------|----------------------------|-------------------------|
--0------0--0--0--0--0----|--0------3--3--3--0--0----|--1------0--0--0--1--1----|--1------1--1--1--1--1----|--2------2--2--2--2--2----|--2------2--2--2--2--2----|--2------2--2--2--2--2----|--3------3--3--3--3--3----|--------------------------|--------------------------|--------------------------|--------------------------|
----------------------------|--0--------4--4--0--0----|--0----------------|--3--3--3--3--3--3--3--3----|-----3--3----------------|--1----------------|--4--5--4--5--5--5--4--4----|-------------------------|--2----------------|--5--5--5--5--5--5--5--5----|--2--0--0--6--6--2--2----|--3----------------|----------------------------|-------------------------|-------------------|----------------------------|-------------------------|-------------------|
------------------|--0----------------|--3----------------|--0----------------|------------------|--3----------------|--3----------------|--1----------------|------------------|--0----------------|--0----------------|--2----------------|------------------|--2----------------|--2----------------|--3----------------|------------------|-------------------|-------------------|-------------------|------------------|-------------------|-------------------|-------------------|
------------------|-------------------|--3----------------|------------------|------------------|--3----------------|--3----------------|------------------|------------------|--4----------------|--4----------------|------------------|------------------|--5----------------|-------------------|------------------|------------------|-------------------|-------------------|------------------|------------------|-------------------|-------------------|------------------|
------------------|------------------|------------0--0----|------------------|------------------|------------0--0----|------------------|------------------|------------2--2----|------------------|------------------|------------3--3----|------------------|------------------|------------3--3----|------------------|------------------|--------------------|
------------------------|------------------------|-------------1--0----5--|------------------------|------------------------|----1--0--1-------------|---------------------2--|--1------------2--1--2--|------------------------|-------------3--2-------|-------3--2-------------|------------------------|-------3--2-------------|------------------------|------------------------|----0-------------------|------------------------|------------------------|
----4-5--4-------------------|------------------------|-----------6--5--------------|------------------------|-----------------5--4-----2--|---------------------2--|-----------------------5-----|-------------3--2-------|-----------------------------|-------3--2-------------|-----------------------------|----0-------------------|
-----------------------------|----5--4-5--4----------------|-----------------------------|--------------6--5-----------|--1-2--1------------1--2--1--|--------------------5--4-----|---------3--2--3-------------|--------------------------5--|-----------------------------|-----------------------------|-----------------------------|-----------------------------|
----5--4-5--4----------------|------------------|------------------|--------------6--5-----5-----|------------------|------------------|--------------------5-----5--|------------------|------------------|-----------------------------|------------------|------------------|-----------------------------|------------------|------------------|-----------------------------|------------------|------------------|
------------------|------------------|------------------|------------------|------------------|------------------|------------------|------------------|------------------|------------------|------------------|------------------|------------------|------------------|------------------|------------------|------------------|------------------|------------------|------------------|------------------|------------------|------------------|------------------|
------------------|--------------------------|--0----------------|------------------|--3--3--3--3--3--3--------|--1----------------|------------------|--4--4--4--4--4--4--------|--2----------------|------------------|--------------------------|--2----------------|------------------|--------------------------|--0----------------|------------------|--------------------------|-------------------|
--0----------------|--3----------------|--0----------------|--0----------------|--1----------------|--3----------------|--0----------------|--1----------------|--2----------------|--4----------------|--1----------------|--2----------------|--3----------------|--5----------------|--2----------------|--2----------------|--3----------------|-------------------|-------------------|--0----------------|-------------------|-------------------|-------------------|-------------------|
--0----------------|------------------------|-----------------------|--1----------------|--0----0----0-----------|-----------------------|--2----------------|--10---10---10----------|-----------------------|--3----------------|--12---12---12----------|-----------------------|--3----------------|--10---10---10----------|--2--2--2--2--2--------|-------------------|------------------------|--0--0--0--0--0--------|
--0------0--0--0--0--0----|--0------3--3--3--0--0----|--1------0--0--0--1--1----|--1------1--1--1--1--1----|--2------2--2--2--2--2----|--2------2--2--2--2--2----|--2------2--2--2--2--2----|--3------3--3--3--3--3----|--------------------------|--------------------------|--------------------------|--------------------------|
--------------------------0--|--0-----0--4--4--0--0----|--3--3--3--3--3--3--3--3-----|-----3-------------------|--4--5--4--5--5--5--4--4-----|-------------------------|--5--5--5--5--5--5--5--5--2--|--2--0--2--6--6--2--2----|-----------------------------|-------------------------|-----------------------------|-------------------------|
--0------0--0--0--0--0----|--0------3--3--3--0--0----|--1------0--0--0--1--1----|--1------1--1--1--1--1----|--2------2--2--2--2--2----|--2------2--2--2--2--2----|--2------2--2--2--2--2----|--3------3--3--3--3--3----|--------------------------|--------------------------|--------------------------|--------------------------|
----------------------------|---------0--0--0--0-------|--3--3--3--3--3--3--3--3----|--0------0--0--0--0--0----|--4--5--4--5--5--5--4--4----|--0------------------7----|--5--5--5--5--5--5--5--5----|--------------------------|----------------------------|--------------------------|----------------------------|--------------------------|
--0------0--0--0--0--0----|--0------3--3--3--0--0----|--1------0--0--0--1--1----|--1------1--1--1--1--1----|--2------2--2--2--2--2----|--2------2--2--2--2--2----|--2------2--2--2--2--2----|--3------3--3--3--3--3----|--------------------------|--------------------------|--------------------------|--------------------------|
----------------------------|--0--------4--4--0--0----|--3--3--3--3--3--3--3--3----|-----3--3----------------|--4--5--4--5--5--5--4--4----|-------------------------|--5--5--5--5--5--5--5--5----|--2--0--0--6--6--2--2----|----------------------------|-------------------------|----------------------------|-------------------------|
--0------0--0--0--0--0----|--0------3--3--3--0--0----|--1------0--0--0--1--1----|--1------1--1--1--1--1----|--2------2--2--2--2--2----|--2------2--2--2--2--2----|--2------2--2--2--2--2----|--3------3--3--3--3--3----|--------------------------|--------------------------|--------------------------|--------------------------|
----------------------------|--0--------4--4--0--0----|--0----------------|--3--3--3--3--3--3--3--3----|-----3--3----------------|--1----------------|--4--5--4--5--5--5--4--4----|-------------------------|--2----------------|--5--5--5--5--5--5--5--5----|--2--0--0--6--6--2--2----|--3----------------|----------------------------|-------------------------|-------------------|----------------------------|-------------------------|-------------------|
------------------|--0----------------|--3----------------|--0----------------|------------------|--3----------------|--3----------------|--1----------------|------------------|--0----------------|--0----------------|--2----------------|------------------|--2----------------|--2----------------|--3----------------|------------------|-------------------|-------------------|-------------------|------------------|-------------------|-------------------|-------------------|
------------------|-------------------|------------------|------------------|------------------|--3----------------|------------------|------------------|------------------|--4----------------|------------------|------------------|------------------|--5----------------|------------------|------------------|------------------|-------------------|------------------|------------------|------------------|-------------------|------------------|------------------|
------------------|------------------|------------------|------------------|------------------|------------------|------------------|------------------|------------------|------------------|------------------|------------------|------------------|------------------|------------------|------------------|------------------|------------------|------------------|------------------|------------------|------------------|------------------|------------------|
------------------|------------------|------------------|------------------|------------------|------------------|------------------|------------------|------------------|------------------|------------------|------------------|------------------|------------------|------------------|------------------|------------------|------------------|
------------------------|--------------------------|-------------------------|------------------------|--------------------------|-------------------------|---------------------2--|--1-----------------------|--2-1----------2-1----2--|-------------3--2-------|-----3--2-----------2--3--|------3------------3-----|-----3--2---------------|-----------3--2--3--------|-------------------------|--0---------------------|--------------------------|-------------------------|
----1----0--3-----1--0--|-----------------------|----------------4--5-4----|----1----0--------------|-----------------------|-----------------------6--|------------------------|------------2--1-------|--------1--2--------------|---------------0--------|--------------------3--|--2--3--------------------|------------------------|----3--2---------------|--------------------------|------------------------|-----------------------|--------------------------|
----------------4--5-4----|--------------------------|----|----||--5--------------------6--|--5-----------------------|----|----||-----5--4-----------------|-----5--4-----4--5--4-----|----|----||-----------5--------------|-----------5-----------5--|----|----||--------------------------|--------------------------|----|----||--------------------------|--------------------------|----|----||
Tap to rate this tab
 
# A B C D E F G H I J K L M N O P Q R S T U V W X Y Z