Dir En Grey - Beautiful Dirt tab

COPYRIGHT JDUBG | JDUBG@HOTMAIL.COM
I CREATED THIS TAB FROM DIR EN GREY - WITHERS AND WITHERS TOUR 05 LIMITED EDITION DVD
PLEASE DO NOT CLAIM YOU MADE THIS. THANKS & ENJOY!

BEAUTIFUL DIRT - WITHERING TO DEATH


D#
A#
F#
C#
G#
C#

+ Kaoru - Lead
+ x=palm mute
+ pu=pull off



Repeat 4x
		   very slight pause before the 4 fret
------------------------
------------------------
------------------------
------------------------
1-1-2-1-3-1-2-1-3-1-2--41-1-2-1-3-1-2-1-3-1-2--4
Repeat this 4x
x x x x x x x x x x x x --------------------------------------------------------------------------------------------------------------------0-2-0-2-0-- 0-2-0-2-0-- 0-1-00-2-0-2-0-- 0-2-0-2-0-- 0-1-0
Flange tape delay effect.------------------|-------------------|------------------|-------------------|------------------|-------------------|---3---3--5--3----|----3---3--5--3----|-2---2---------7--|--2---2---------5--|------------------|-------------------|
------------------|-------------------|------------------|-------------------|------------------|-------------------|---3---3--5--3----|----3---3--5--7----|-2---2---------7--|--2---2------------|------------------|----------------8--|
-------------------------------------------------------------------------------------------------------2-------------0-2-5pu2--0--3-2-------------0-2-5pu2--0--3--------------
Repeat 7x
-0-1-0----0-1-0-1b
x x x x x x x x -------------------------------------------------------------------------------------0-0-0-1-0-0-2--1-0---0-0-0-1-0-0-2--1-0--
Tap to rate this tab
 
# A B C D E F G H I J K L M N O P Q R S T U V W X Y Z