Dir En Grey - Kodou tab

This is my first submitted tab to Ultimate Guitar, how you guys enjoy. No one's 
Kodou yet which bothered me. I think they might use an octave changing pedal during the chorus, 
the guitar is tuned down a half step Im pretty sure. Anyways, onto the tab.

I think the guitars they play are tuned down half a step, the chords given are just the 
on the fretboard.

Intro|-----------||-----------||-----------| x2|-7-4-7-4-4-||-7-4-7-4-2-||-5-2-5-2-0-|
verse|---------------------||-------3-------------||---------------------| x4|-4-5-4---4-5-4h5r4---||-------------------5-||---------------------|
bridge1guitar1|-7-10-10-7-5-5-7-||-8-------8-----8-||-9-------9-----9-||-----------------||-----------------||-----------------|
bridge1guitar2|---------------------0-----||-------------------3---3---||-----------------0-------0-||---------------4-----------||---------------------------||---------------------------|
|-------------------------||-------------------------||-------------------------||-4-5-4-5r4-5-4-5-4h5r4---| x2|-----------------------5-||-------------------------|
bridge2|-7-10-10-7-10-10-||-8-------8-------||-9-------9-------||-----------------||-----------------||-----------------|
Chorus|---2---2-||---3-1-3-||---2-0-2-||-2---2---| x2|-2---3---||-0-------|
|---------||---------||---------||-2-4-5-7-||-2-4-5-7-||-0-2-3-5-|
|---2---2-||---3-1-3-||---2-0-2-||-2---2---||-2---3---||-0-------|
SoloGuitar1 w/ wah-wah|---------------------||---------------------||-9-9-9-9-9-9-x-x-x-x-||-9-9-9-9-9-9-x-x-x-x-| x8 (guitar2 comes in 5th time)|-7-7-7-7-7-7-x-x-x-x-||---------------------|
SoloGuitar2 w/ wah-wah|---------------------------------||---------------------------------||-11-11-12-12-11-11-11-12-x-x-x-x-||-14-14-14-14-14-14-14-14-x-x-x-x-||---------------------------------||---------------------------------|
|-------------------------------||-------------------------------||-11-11-11-11-12-11-x-x-x-x-x-x-||-14-14-14-14-14-14-x-x-x-x-x-x-||-------------------------------||-------------------------------|
|---------------------------------||---------------------------------||-11-11-12-12-11-11-11-12-x-x-x-x-||-14-14-14-14-14-14-14-14-x-x-x-x-||---------------------------------||---------------------------------|
|------------------------------||------------------------------||-11-11-11-11-11-12-11-11-11/9-||-14-14-14-14-14-14-14-14-14---||------------------------------||------------------------------|
Bridge|-7-10-10-7-5-5-7-||-8-------8-----8-||-9-------9-----9-||-----------------||-----------------||-----------------|
|-7-10-10-7-10-10-||-8-------8-------||-9-------9-------||-----------------||-----------------||-----------------|
Chorus|---2---2-||---3-1-3-||---2-0-2-||-2---2---| x2|-2---3---||-0-------|
|---------||---------||---------||-2-4-5-7-||-2-4-5-7-||-0-2-3-5-|
|---2---2-||---3-1-3-||---2-0-2-||-2---2---| x5|-2---3---||-0-------|
Tap to rate this tab
 
# A B C D E F G H I J K L M N O P Q R S T U V W X Y Z