Dir En Grey - Schwein No Isu tab

Sorry the middle is kinda messed up >.< but oh well atleast this is the part!!!




G||------------------|------------------------|------------------------|D||------------------|------------------------|------------------------|A||------------------|--------------9---------|------------0--2--3--2--|E||------------------|--2--2--1--2-------8/---|--2------2--------------|
------------------------|------------------------|------------------------|------------------------|------------------------|------------------------|--------------9---------|------------0--2---3----|--------3-----9---------|--2--2--1--2-------8/---|--2------2--------------|--2--2-----2-------8/---|
------------------------|-------------------------|----------------------|------------------------|-------------------------|----------------------|------------0--2--3--2--|--------3-----9----------|----------------------|--2------2--------------|--2--2-----2--------8/---|--2------2--2--2------|
------------------------|-------------------------|------------------------|------------------------|-------------------------|------------------------|--------------9---------|------------0--2---3--2--|--------------9---------|--2--2--1--2-------8/---|--2------2---------------|--2--2--1--2-------8/---|
-----------------------|-------------------------|------------------------|-----------------------|-------------------------|------------------------|------------0--2--3----|--------3-----9----------|------------0--2--3--2--|--2------2-------------|--2--2-----2--------8/---|--2------2--------------|
------------------------|---------------------------||--------------------------|------------------------|-----10-----9--7-----------||*--------------4----------|--------3-----9---------|--9------9---------5--6/---||*-------------------3-----|--2--2-----2-------8/---|---------------------------||---2--2--1--2----------2--|
--------------------------|--------------------------|-------------------------|--------------------------|--------------4-----------|-------------------------|--------------0--2--3--2--|--------------------3-----|--------------0--2--3----|--2--2--2--2--------------|--2--2--1--2-----------2--|--2--2--2--2-------------|
-------------------------|---------------------------|-------------------------|--------------4----------|---------------------------|--------------4----------|-------------------3-----|--------------0---2--3--2--|-------------------3-----|--2--2--1--2----------2--|--2--2--2--2---------------|--2--2--1--2----------2--|
--------------------------||--------------------------|-------------------------|-------------------------*||--------------------------|-------------------------|--------------0--2--3----*||--------------00--2--3----|-------------------------|--2--2--2--2--------------||--2--2--2--2--------------|--0-0-2-2-0-0-2----------|
---------------------------|--------------------------|---------------------------|--------------------------|------------------------2--|--------------------------|--0-0-2-2-0-0-2----3-------|--0-0-2-2-0-0-22----------|
---------------------------|--------------------------|---------------------------|--------------------------|-------------------3----2--|--------------------------|--0-0-2-2-0-0-2------------|--0-0-2-2-0-0-22----------|
---------------------------|--------------------------|-------------------------|---------------------------|--------------------------|-------------------------|------------------------2--|--------------------------|--2--2--2--3----3--------|--0-0-2-2-0-0-2----3-------|--0-0-2-2-0-0-22----------|-------------------3--3--|
-------------------------|---------------------------|-------------------------|--------------4----------|---------------------------|--------------4----------|-------------------3-----|--------------0---2--3--2--|-------------------3-----|--2--2--1--2----------2--|--2--2--2--2---------------|--2--2--1--2----------2--|
-------------------------|--------------------------|--------------------------|-------------------------|--------------4-----------|--------------------------|--------------0--2--3----|--------------------3-----|--------------0--2--3--2--|--2--2--2--2-------------|--2--2--1--2-----------2--|--2--2--2--2--------------|
-------------------------|--------------------------|--------------------------|--------------4----------|--------------------------|--------------------------|-------------------3-----|--------------0---2--3----|--------------------------|--2--2--1--2----------2--|--2--2--2--2--------------|--2--2--2--2--2--2--2--2--|
--------------------------|---------------------------|-------------------------|--------------------------|---------------------------|--------------4----------|--------------------2--2--|---------------------------|-----0--2--3-----4-------|--2--2--2--2--3--3--------|--2--2--2--2--2---2--2--2--|--2-----------------3----|
--------------------------|---------------------------|--------------------------|---------------------------|--------------------------|------------------0--1--2--|--2--2--2--2--2--2--2--2--|--2--2--2--2--2------------|
--------------------------|---------------------------------|--------------------------|---------------------------------|--------------------------|--3----3----3-----2----2----2----|--2--2--2--2--2--2--2--2--|---------------------------------|
------------------------|-------------------------|------------------------|------------------------|-------------------------|------------------------|--------------9---------|-------------0--2---3----|--------------9---------|--2--2--1--2-------8/---|--3----3--3--------------|--2--2--1--2-------8/---|
--------------------------|-------------------------|------------------------|-----10-----9--7----------|-------------------------|------------------------|--9------9--------5--6/---|--------------9----------|-------------0--2--3----|--------------------------|--2--2--1--2--------8/---|--3----3--3-------------|
------------------------|---------------------------|--------------------------|------------------------|-----10-----9--7-----------|--------------------------|--------------9---------|--9------9---------5--6/---|-----------------4--------|--2--2--1--2-------8/---|---------------------------|--2--2--2--2--2-----5--4--|
--------------------------|---------------------------|--------------------------|---------------------------|--------------------------|------------------4--------|--3--3--3--3--3--5--3--0--|--2--2--2--2--2------5--4--|
--------------------------|---------------------------|--------------------------|---------------------------|--------------------------|--9--9--9--9--9------7-----|--3--3--3--3--3--3--10----|------------------9-----7--|
--------------------------------|---------------------------|------------------|----------------------9---------|---------------------------|------------------|--10--10--10--10--10-----10--7--|--9--9--9---9--9-----7--8--|------------------|--------------------------------|------------------9--------|------------------|
--------------------------|---------------------------|--------------------------|--------2---------5-----2--|--2--2--2--2--2--2--2--3--|--3--3-----3--3------3-----|--------------------------|---------------------------|
--------------------------|---------------------------|--------------------------|---------------------------|--2--2--2--2--2--0--------|--------0--2--3---3--2-----|--------------------3--2--|--1--1------------------3--|
----------------------------|---------------------------|----------------------------|--------2---------5-----2--|--2--2--2-2-2--2--2--2-2-2--|--3--3-----3---3-----3-----|----------------------------|---------------------------|
----------------------------|---------------------------|----------------------------|---------------3/-5/-3-----|--2--2--2-2-2--2--2--2-2-2--|--0--0-----3------------3--|----------------------------|--------1------------------|
----------------------------|---------------------------|----------------------------|--------2---------5-----2--|--2--2--2-2-2--2--2--2-2-2--|--3--3-----3---3-----3-----|----------------------------|---------------------------|
----------------------------|---------------------------|----------------------------|---------------------------|--2--2--2-2-2--2--2--2-2-2--|--------0--2---3--3--2-----|----------------------------|--1--1------------------3--|
----------------------------|---------------------------|----------------------------|--------2---------5-----2--|--2--2--2-2-2--2--2--2-2-2--|--3--3-----3---3-----3-----|----------------------------|---------------------------|
----------------------------|---------------------------|----------------------------|---------------3/-5/-3-----|--2--2--2-2-2--2--2--2-2-2--|--0--0-----3------------3--|----------------------------|--------1------------------|
------------------------|-------------------------|------------------------|------------------------|-------------------------|------------------------|--------------9---------|------------0--2---3--2--|--------------9---------|--2--2--1--2-------8/---|--2------2---------------|--2--2--1--2-------8/---|
-----------------------|-------------------------|------------------------|-----------------------|-------------------------|------------------------|------------0--2--3----|--------------9----------|------------0--2--3--2--|--2------2-------------|--2--2--1--2--------8/---|--2------2--------------|
------------------------|---------------------------|-------------------------|------------------------|-----10-----9--7-----------|--------------4----------|--------------9---------|--9------9---------5--6/---|-------------------3-----|--2--2--1--2-------8/---|---------------------------|--2--2--1--2----------2--|
--------------------------|--------------------------|-------------------------|--------------------------|--------------4-----------|-------------------------|--------------0--2--3--2--|--------------------3-----|--------------0--2--3----|--2--2--2--2--------------|--2--2--1--2-----------2--|--2--2--2--2-------------|
-------------------------|---------------------------|-------------------------|--------------4----------|---------------------------|--------------4----------|--------3----------3-----|--------------0---2--3--2--|--------3----------3-----|--2--2-----2----------2--|--2--2--2--2---------------|--2--2-----2----------2--|
--------------------------|--------------------------|--------------------------|--------------------------|--------------0--2--3--2--|--------------------------|--2--2--2--2--------------|--0-0-2-2-0-0-2-----------|
---------------------------|--------------------------|---------------------------|--------------------------|------------------------2--|--------------------------|--0-0-2-2-0-0-2----3-------|--0-0-2-2-0-0-22----------|
---------------------------|--------------------------|---------------------------|--------------------------|-------------------3----2--|--------------------------|--0-0-2-2-0-0-2------------|--0-0-2-2-0-0-22----------|
----------------------------|--------------------------|----------------------------|--------------------------|-------------------------2--|--------------------------|--0-0-2-2-0-0-2----3--3-----|--0-0-2-2-0-0--2----------|
--------------------------------|-------------------------|--------------------------------|-------------------------|--3----3----3----2----2----2----|---------------9---------|--------------------------------|--2--2--1---2-------8/---|
------------------------|-------------------------|--------------------------|------------------------|-------------------------|-----10-----9--7----------|-------------0--2--3----|--------------9----------|--9------9--------5--6/---|--3----3--3-------------|--2--2--1--2--------8/---|--------------------------|
------------------------|-------------------------|------------------------|------------------------|-------------------------|------------------------|--------------9---------|-------------0--2---3----|--------------9---------|--2--2--1--2-------8/---|--3----3--3--------------|--2--2--1--2-------8/---|
---------------------------|---------------------------|-----11--10--9--7----------|---------------------------|--9----------------5--6/---|------------------4--------|---------------------------|--2--2--2--2--22-----5--4--|
--------------------------|---------------------------|--------------------------|---------------------------|--------------------------|------------------4--------|--3--3--3--3--3--5--3--0--|--2--2--2--2--2------5--4--|
--------------------------|---------------------------|--------------------------|---------------------------|--------------------------|--9--9--9--9--9------7-----|--3--3--3--3--3--3--10----|------------------9-----7--|
--------------------------------|---------------------------|----------------------9---------|---------------------------|--10--10--10--10--10-----10--7--|--9--9--9---9--9-----7--8--|--------------------------------|------------------9--------|
--------------------|---------------------------|--------------------------|--------------------|---------------------------|--------2--------5-----2--|------------3----3--|--2--2--2--2--2--2--2---3--|--3--3-----3--3-----3-----|--------------------|---------------------------|--------------------------|
--------------------------|---------------------------|--------------------------|---------------------------|--2--2--2--2--2--0--------|--------0--2--3---3--2-----|--------------------3--2--|--1--1------------------3--|
----------------------------|---------------------------|----------------------------|--------2---------5-----2--|--2--2--2-2-2--2--2--2-2-2--|--3--3-----3---3-----3-----|----------------------------|---------------------------|
----------------------------|---------------------------|----------------------------|---------------3/-5/-3-----|--2--2--2-2-2--2--2--2-2-2--|--0--0-----3------------3--|----------------------------|--------1------------------|
----------------------------|---------------------------|----------------------------|--------2---------5-----2--|--2--2--2-2-2--2--2--2-2-2--|--3--3-----3---3-----3-----|----------------------------|---------------------------|
----------------------------|---------------------------|----------------------------|---------------------------|--2--2--2-2-2--2--2--2-2-2--|--------0--2---3--3--2-----|----------------------------|--1--1------------------3--|
----------------------------|---------------------------|----------------------------|--------2---------5-----2--|--2--2--2-2-2--2--2--2-2-2--|--3--3-----3---3-----3-----|----------------------------|---------------------------|
----------------------------|---------------------------|----------------------------|---------------------------|--2--2--2-2-2--2--2--2-2-2--|--------2--3------5--3--3--|----------------------------|--1--1---------1-----------|
--------------------------|---------------------------|--------------------------|--4--------2---------------|--------0--------4--------|---------------------3h-4--|--2--2-----2--2-----2--2--|-----2--2-----2---2--------|
--------------------------|---------------------------|--------------------------|--4------------------3h-4--|--------0--------4--------|-----------2---------------|--2--2-----2--2-----2--2--|-----2--2-----2---2--------|
--------------------------|---------------------------|--------------------------|--4--------2---------------|--------0--------4--------|---------------------3h-4--|--2--2-----2--2-----2--2--|-----2--2-----2---2--------|
--------------------------|---------------------------|-------------------------|--------------------------|--4------------------3h-4--|--------------4----------|--------0--------4--------|-----------2---------------|-------------------3-----|--2--2-----2--2-----2--2--|-----2--2-----2---2--------|--2--2--1--2----------2--|
--------------------------|--------------------------|-------------------------|--------------------------|--------------4-----------|-------------------------|--------------0--2--3--2--|--------------------3-----|--------------0--2--3----|--2--2--2--2--------------|--2--2--1--2-----------2--|--2--2--2--2-------------|
-------------------------|---------------------------|-------------------------|--------------4----------|---------------------------|--------------4----------|-------------------3-----|--------------0---2--3--2--|-------------------3-----|--2--2--1--2----------2--|--2--2--2--2---------------|--2--2--1--2----------2--|
--------------------------|--------------------|--------------------------||--------------------------|--------------------|--------------------------||--------------0--2--3--0--|--3-----------------|--------0--2--3--3--2--0--||--2--2--2--2--------------|--------------------|--2--2--------------------||
Tap to rate this tab
 
# A B C D E F G H I J K L M N O P Q R S T U V W X Y Z