Your Love tab with lyrics by Dirty Heads - Easy chords and tabs for guitar

Dirty Heads – Your Love tab

I didn't put too much time into tabbing the strum patterns. 
I tabbed this all by ear and there are several changes in the pattern.
Feel free to use this as a guideline, but play what feels best to you.

Intro1st guitar|-7----7----7---777---3-3--3s5-5-55----------||-8----8----8---888---5-5--5s7-7-77----------||-9----9----9---999---5-5--5s7-7-77----------||-9----9----9---777---5-5--5s7-7-77----------||-7----7----7---777---3-3--3s5-5-55----------||--------------------------------------------|
|-7----7----7---77----3-3--3s5--555----------||-8----8----8---88----5-5--5s7--777----------||-9----9----9---99----5-5--5s7--777----------||-9----9----9---77----5-5--5s7--777----------||-7----7----7---77----3-3--3s5--555----------||--------------------------------------------|
2nd guitar|---------------------3-3--5s7---------------||---------------------5-5--5s7---------------||---------------------5-5--5s7---------------| (x2)|---------------------5-5--5s7---------------||-77---7777-5---------3-3--3s5---------------||-------------7-5-88-------------------------|
Verse (There are two different strumming patterns used for each bar, one has more of a shuffle on the last two chords)
|-7----7----7---777---3-3--3s5-5-55----------||-8----8----8---888---5-5--5s7-7-77----------||-9----9----9---999---5-5--5s7-7-77----------| (x3)|-9----9----9---777---5-5--5s7-7-77----------| |-7----7----7---777---3-3--3s5-5-55----------||--------------------------------------------|
|-7----7----7---777---3-3--3s2------3--------||-8----8----8---888---5-5--5s4------3--------||-9----9----9---999---5-5--5s4------4--------||-9----9----9---777---5-5--5s4------5--------| |-7----7----7---777---3-3--3s2------5--------||-----------------------------------3--------|
Chorus
|-3---------7-7-----7----------5------5------||-3---------7-7-----8----------5------7------||-4---------8-7-----9----------6------7------||-5---------9-9-----9----------7------7------||-5---------9-9-----7----------7------5------||-3---------7-7----------------5-------------|
2nd guitar plays arpeggios of same chords, sounds pretty close to this
|----------------77-------7------5-----------||-------3-----7--77----8----8-----5-----7--7-||-4----4-4---8-8-88---9-9----------6---7-7---||-5-5-5---5-9--------9---9------7-----7---7--||-5-5------(9)------(7)--------7-------------||-3------------------------------------------|
Bridge (Whooaaa whoaa oh oh oh oh oooohhhhh)
|-3-3-3--33-3--3-3-3--55-5-------------------||-3-3-3--55-5--3-3-3--77-7-------------------||-4-4-4--55-5--4-4-4--77-7-------------------||-5-5-5--55-5--5-5-5--77-7-------------------||-5-5-5--33-3--5-5-5--55-5-------------------||-3-3-3--------3-3-3-------------------------|
|-3-3-3--33-3--3-3-3--5---5------------------||-3-3-3--55-5--3-3-3--7---7------------------||-4-4-4--55-5--4-4-4--7---7------------------||-5-5-5--55-5--5-5-5--7---7------------------||-5-5-5--33-3--5-5-5--5---5------------------||-3-3-3--------3-3-3-------------------------|
Verse Chorus Bridge Breakdown Pt 1
(softly)|-3------7-7------7--------------------------||-3------7-7------8--------------------------||-4------8-8------9--------------------------||-5------9-9------9--------------------------| (x2)|-5------9-9------7--------------------------||-3------7-7---------------------------------|
Guitar 2 fingerpicks arpeggios on open chord pattern, C D Em It's hard to hear but sounds close to
|-----------2----------0---------------------||-1--1-----3-3----0--0--0--------------------||---0-0---2--(2)----0----0-------------------||--2-----0---------2------2------------------||-3------------------------0-----------------||-----------------0--------------------------|
Breakdown Pt 2 (so let it spin so... now that I've been stoned)
|-3------5------7-----10---------------------||-5------7------8-----12---------------------||-5------7------9-----12---------------------||-5------7------9-----12---------------------||-3------5------7-----10---------------------||--------------------------------------------|
|-3------5------8-----10---------------------||-5------7------8-----10---------------------||-5------7------9-----11---------------------||-5------7------10----12---------------------||-3------5------10----12---------------------||---------------8-----10---------------------|
Chorus Bridge (x2)
End on:|-------3------------------------------------||--7----3------------------------------------||-7-7---4------------------------------------||----7--5------------------------------------||-------5------------------------------------||-------3------------------------------------|
Please rate this tab:
x1.0