Dirty Rotten Imbeciles – Argument Then War tab

argument then war


D.R.I.


TRANSCRIBED BY RUDY GUZMAN


guzman_84@hotmail.com



e:------------------------------------|B:------------------------------------|G:------------------------------------|D:------------------------------------|A:-3-2-0-2-3------5-----7-------------|E:------------0-0---0-0---0-0--3-2-0--|
e:------------------------------------|B:------------------------------------|G:------------------------------------|D:-3-2-0-2-3------5-----7-------------|A:------------0-0---0-0---0-0--3-2-0--|E:------------------------------------|
e:------------------------------------|B:------------------------------------|G:------------------------------------|D:------------------------------------|A:-3-2-0-2-3------5-----7-------------|E:------------0-0---0-0---0-0--3-2-0--|
e:-----------------------------|B:-----------------------------|G:-----------------------------|D:-2---------------------------|A:-2---------------------------|E:-0---------------------------|
:-------------------------------------------|:-------------------------------------------|:-------------------------------------------|:-------------------------------------------|:-2-----------2-----------2-----------3-3-2-|:-0--0-0-0-0--0--0-0-0-0--0--0-0-0-0--1-1-0-|
:-------------------------------------------------|:-------------------------------------------------|:-------------------------------------------------|:-9-9-7-9-----10-7-9-------9-9-7-9--------7-7-----|:-7-7-5-7-----8--5-7-------7-7-5-7--------5-5-----|:---------000--------00000---------00000------000-|
:--------------------------------------------------------------|:--------------------------------------------------------------|:--------------------------------------------------------------|:-9-9-7-9-----10-7-9-------9-9-7-9--------7-7--10-10-9-9-------|:-7-7-5-7-----8--5-7-------7-7-5-7--------5-5--8--8--7-7-2--2--|:---------000--------00000---------00000-----------------0--0--|
:-----------------------------------------------------------------|:-----------------------------------------------------------------|:-----------------------------------------------------------------|:-----------9-----------10--7-----------9------------7-7-7-7-7----|:-2---------7-----------8---5-----------7--2---------5-5-5-5-5----|:-0--0-0-0----0--0-0-0--------0--0-0-0-----0--0-0-0---------------|
:--------------------------------------------------------------------|:--------------------------------------------------------------------|:----------------------------------------------------------------5nh-|:-----------9-----------10--7-----------9--------------------5nh-----|:-2---------7-----------8---5-----------7--2-------------5nh---------|:-0--0-0-0----0--0-0-0--------0--0-0-0-----0--0-0-0--5nh-------------|
verse:-----------------------------------------------------------------|:-----------------------------------------------------------------|:-----------------------------------------------------------------|:-----------9-----------10--7-----------9------------7-7-7-7-7----|:-2---------7-----------8---5-----------7--2---------5-5-5-5-5----|:-0--0-0-0----0--0-0-0--------0--0-0-0-----0--0-0-0---------------|
:-----------------------------------------------------------------|:-----------------------------------------------------------------|:---------------------------------------------------10-10-10-10-9-|:-----------9-----------10--7-----------7--7-7-7-7----------------|:-2---------7-----------8---5-----------5--5-5-5-5----------------|:-0--0-0-0----0--0-0-0--------0--0-0-0----------------------------|
:------------------------------------------------------|:------------------------------------------------------|:------------------------------------------------------|:-----------9-----------10/9---------9/7-----------7---|:-2---------7-----------8-/7---------7/5-----------5---|:-0--0-0-0----0--0-0-0--------0-0-0------0--0-0-0------|
:--------------------------|:--------------------------|:--------------------------|:-2-2--9-9--5-5------------|:-0-0--7-7--3-3--0-2-3-0---|:--------------------------|
man wans o fih...:--------------------------|:--------------------------|:--------------------------|:-2-2--9-9--5-5------------|:-0-0--7-7--3-3--0-2-3-0---|:--------------------------|
:-----------------|:-----------------|:-----------------|:-2-2--9-9--5--4--|:-0-0--7-7--3--2--|:-----------------|
:-----------------------------------------------------------------|:-----------------------------------------------------------------|:-----------------------------------------------------------------|:-----------9-----------10--7-----------9------------7-7-7-7-7----|:-2---------7-----------8---5-----------7--2---------5-5-5-5-5----|:-0--0-0-0----0--0-0-0--------0--0-0-0-----0--0-0-0---------------|
:--------------------------------------------------------------------|:--------------------------------------------------------------------|:----------------------------------------------------------------5nh-|:-----------9-----------10--7-----------9--------------------5nh-----|:-2---------7-----------8---5-----------7--2-------------5nh---------|:-0--0-0-0----0--0-0-0--------0--0-0-0-----0--0-0-0--5nh-------------|
:-----------|:-----------|:-----------|:-----------|:-2-2-2-2---|:-0-0-0-0---|
:---------------------------------------------------------|:---------------------------------------------------------|:---------------------------------------------------------|:---9-----------10--7-----------9------------7-7-7-7-7----|:---7-----------8---5-----------7--2---------5-5-5-5-5----|:-----0--0-0-0--------0--0-0-0-----0--0-0-0---------------|
:-----------|:-----------|:-----------|:-----------|:-2-2-2-2---|:-0-0-0-0---|
:---------------------------------------------------------|:---------------------------------------------------------|:---------------------------------------------------------|:---9-----------10--7-----------9------------7-7-7-7-7----|:---7-----------8---5-----------7--2---------5-5-5-5-5----|:-----0--0-0-0--------0--0-0-0-----0--0-0-0---------------|
:-----------------------------------------------------------------|:-----------------------------------------------------------------|:---------------------------------------------------10-10-10-10-9-|:-----------9-----------10--7-----------7--7-7-7-7----------------|:-2---------7-----------8---5-----------5--5-5-5-5----------------|:-0--0-0-0----0--0-0-0--------0--0-0-0----------------------------|
:-----------------------------------------------------------------|:-----------------------------------------------------------------|:---------------------------------------------------10-10-10-10-9-|:-----------9-----------10--7-----------7--7-7-7-7----------------|:-2---------7-----------8---5-----------5--5-5-5-5----------------|:-0--0-0-0----0--0-0-0--------0--0-0-0----------------------------|
:------------------------------------------------------|:------------------------------------------------------|:------------------------------------------------------|:-----------9-----------10/9---------9/7-----------7---|:-2---------7-----------8-/7---------7/5-----------5---|:-0--0-0-0----0--0-0-0--------0-0-0------0--0-0-0------|
:--------------------------|:--------------------------|:--------------------------|:-2-2--9-9--5-5------------|:-0-0--7-7--3-3--0-2-3-0---|:--------------------------|
man wans o fih...:--------------------------|:--------------------------|:--------------------------|:-2-2--9-9--5-5------------|:-0-0--7-7--3-3--0-2-3-0---|:--------------------------|
:--------------------------|:--------------------------|:--------------------------|:-2-2--9-9--5-5---------2--|:-0-0--7-7--3-3--0-2-3--0--|:--------------------------|
Please rate this tab:
x1.0