Dirty Rotten Imbeciles – Nursing Home Blues tab

D.R.I.

song: nursing home blues

album: dealing with it


tabbed by Rudy Guzman

guzman_84@hotmail.com



|------------------------------------------------------------------------------------||------------------------------------------------------------------------------------||------------------------------------------------------------------------------------||-9-9999-10-10101010-9-9999-10-10101010-9-9999-10-10101010-9-9999-10-10101010-9-9999-||-7-7777-8--8-8-8-8--7-7777-8--8-8-8-8--7-7777-8--8-8-8-8--7-7777-8--8-8-8-8--7-7777-||-0-0000-0--0-0-0-0--0-0000-0--0-0-0-0--0-0000-0--0-0-0-0--0-0000-0--0-0-0-0--0-0000-|
|-------------------------------------------------------------------||-------------------------------------------------------------------||-------------------------------------------------------------------||-12-12-9-9999-10-10-10-9-9999-12-12-12-12-12--10-10-10-10-10--9--9-||-10-10-7-7777-8--8--8--7-7777-10-10-10-10-10--8--8--8--8--8---7--7-||-0--0--0-0000-0--0--0--0-0000-0--0--0--0--0---0--0--0--0--0---0--0-|
|--------------------------------------------------------------------------||--------------------------------------------------------------------------||--------------------------------------------------------------------------||9-9999-12-12-9-9999-10-10-10-9-9999-12-12-12-12-12--10-10-10-10-10--9--9--||7-7777-10-10-7-7777-8--8--8--7-7777-10-10-10-10-10--8--8--8--8--8---7--7--||0-0000-0--0--0-0000-0--0--0--0-0000-0--0--0--0--0---0--0--0--0--0---0--0--|
|---------------------------------------||---------------------------------------||---------------------------------------||---------------------------------------||-2-----------2-----------2-----------3-||-0--0-0-0-0--0--0-0-0-0--0--0-0-0-0--1-|
|-----------------------------------------------||-----------------------------------------------||-----------------------------------------------||-------------------------------------12-12-12--||-2-----------2-----------2-----------10-10-10--||-0--0-0-0-0--0--0-0-0-0--0--0-0-0-0------------|
|---------------------------------------||---------------------------------------||---------------------------------------||---------------------------------------||-2-----------2-----------2-----------3-||-0--0-0-0-0--0--0-0-0-0--0--0-0-0-0--1-|
|-----------------------------------------------||-----------------------------------------------||-----------------------------------------------||-------------------------------------12-12-12--||-2-----------2-----------2-----------10-10-10--||-0--0-0-0-0--0--0-0-0-0--0--0-0-0-0------------|
|---------------------------------||---------------------------------||---------------------------------||---------------------------5-5-5-||-2-----------5--2-2-2-2-2--3-3-3-||-0--0-0-0-0----------------------|
|---------------------------------||---------------------------------||---------------------------------||---------------------------5-5-5-||-2-----------5--2-2-2------3-3-3-||-0--0-0-0-0----------------------|
verse|---------------------------------||---------------------------------||---------------------------------||---------------------------5-5-5-||-2-----------5--2-2-2-2-2--3-3-3-||-0--0-0-0-0----------------------|
|------------------------------------------------------------------------------------------||------------------------------------------------------------------------------------------||------------------------------------------------------------------------------------------||------------------------------------------7--5--4------------------------------------5-4-2||-7--7-7-7-7--7--7-7-7-7--5--5-5-5-5--5-5--5--3--2--4--4-4-4-4--4--4-4-4-4--5-5-5-5-5-3-2-0||-5--5-5-5-5--5--5-5-5-5--3--3-3-3-3--3-3-----------2--2-2-2-2--2--2-2-2-2--3-3-3-3-3------|
|------------------------------------------------------------------------------------------||------------------------------------------------------------------------------------------||------------------------------------------------------------------------------------------||------------------------------------------7--5--4------------------------------------5-4-2||-7--7-7-7-7--7--7-7-7-7--5--5-5-5-5--5-5--5--3--2--4--4-4-4-4--4--4-4-4-4--5-5-5-5-5-3-2-0||-5--5-5-5-5--5--5-5-5-5--3--3-3-3-3--3-3-----------2--2-2-2-2--2--2-2-2-2--3-3-3-3-3------|
|------------------------------------------------------------------------------------||------------------------------------------------------------------------------------||------------------------------------------------------------------------------------||------------------------------------------------------------------------------------||-9--9-9-9-9--9--9-9-9-9--7--7-7-7-7--7--7-7-7-7--4--4-4-4-4--4--4-4-4-4--5--5-5-5-5-||-7--7-7-7-7--7--7-7-7-7--5--5-5-5-5--5--5-5-5-5--2--2-2-2-2--2--2-2-2-2--3--3-3-3-3-|
|----------------------------------------------------------------------------||----------------------------------------------------------------------------||----------------------------------------------------------------------------||----------------------------------------------------------------------------||-9--9-9-9-9--9--9-9-9-9--7--7-7-7-7--7--7-7-7-7--5--5-5-5-5--5--5-5-5-5--4--||-7--7-7-7-7--7--7-7-7-7--5--5-5-5-5--5--5-5-5-5--3--3-3-3-3--3--3-3-3-3--2--|
|------------------------------------------------------------------------------------------||------------------------------------------------------------------------------------------||------------------------------------------------------------------------------------------||------------------------------------------7--5--4------------------------------------5-4-2||-7--7-7-7-7--7--7-7-7-7--5--5-5-5-5--5-5--5--3--2--4--4-4-4-4--4--4-4-4-4--5-5-5-5-5-3-2-0||-5--5-5-5-5--5--5-5-5-5--3--3-3-3-3--3-3-----------2--2-2-2-2--2--2-2-2-2--3-3-3-3-3------|
|--------------------------------------------------------------------------||--------------------------------------------------------------------------||--------------------------------------------------------------------------||9-9999-12-12-9-9999-10-10-10-9-9999-12-12-12-12-12--10-10-10-10-10--9--9--||7-7777-10-10-7-7777-8--8--8--7-7777-10-10-10-10-10--8--8--8--8--8---7--7--||0-0000-0--0--0-0000-0--0--0--0-0000-0--0--0--0--0---0--0--0--0--0---0--0--|
|--------------------------------------------------------------------------||--------------------------------------------------------------------------||--------------------------------------------------------------------------||9-9999-12-12-9-9999-10-10-10-9-9999-12-12-12-12-12--10-10-10-10-10--9--9--||7-7777-10-10-7-7777-8--8--8--7-7777-10-10-10-10-10--8--8--8--8--8---7--7--||0-0000-0--0--0-0000-0--0--0--0-0000-0--0--0--0--0---0--0--0--0--0---0--0--|
|---------------------------------------||---------------------------------------||---------------------------------------||---------------------------------------||-2-----------2-----------2-----------3-||-0--0-0-0-0--0--0-0-0-0--0--0-0-0-0--1-|
|-----------------------------------------------||-----------------------------------------------||-----------------------------------------------||-------------------------------------12-12-12--||-2-----------2-----------2-----------10-10-10--||-0--0-0-0-0--0--0-0-0-0--0--0-0-0-0------------|
|---------------------------------------||---------------------------------------||---------------------------------------||---------------------------------------||-2-----------2-----------2-----------3-||-0--0-0-0-0--0--0-0-0-0--0--0-0-0-0--1-|
|-----------------------------------------------||-----------------------------------------------||-----------------------------------------------||-------------------------------------12-12-12--||-2-----------2-----------2-----------10-10-10--||-0--0-0-0-0--0--0-0-0-0--0--0-0-0-0------------|
|---------------------------------||---------------------------------||---------------------------------||---------------------------5-5-5-||-2-----------5--2-2-2-2-2--3-3-3-||-0--0-0-0-0----------------------|
|---------------------------------||---------------------------------||---------------------------------||---------------------------5-5-5-||-2-----------5--2-2-2------3-3-3-||-0--0-0-0-0----------------------|
verse|---------------------------------||---------------------------------||---------------------------------||---------------------------5-5-5-||-2-----------5--2-2-2-2-2--3-3-3-||-0--0-0-0-0----------------------|
|------------------------------------------------------------------------------------------||------------------------------------------------------------------------------------------||------------------------------------------------------------------------------------------||------------------------------------------7--5--4------------------------------------5-4-2||-7--7-7-7-7--7--7-7-7-7--5--5-5-5-5--5-5--5--3--2--4--4-4-4-4--4--4-4-4-4--5-5-5-5-5-3-2-0||-5--5-5-5-5--5--5-5-5-5--3--3-3-3-3--3-3-----------2--2-2-2-2--2--2-2-2-2--3-3-3-3-3------|
|---------------------------------||---------------------------------||---------------------------------||---------------------------5-5-5-||-2-----------5--2-2-2-2-2--3-3-3-||-0--0-0-0-0----------------------|
|---------------------------------||---------------------------------||---------------------------------||---------------------------5-5-5-||-2-----------5--2-2-2------3-3-3-||-0--0-0-0-0----------------------|
|------------------------------------------------------------------------------------||------------------------------------------------------------------------------------||------------------------------------------------------------------------------------||------------------------------------------------------------------------------------||-9--9-9-9-9--9--9-9-9-9--7--7-7-7-7--7--7-7-7-7--4--4-4-4-4--4--4-4-4-4--5--5-5-5-5-||-7--7-7-7-7--7--7-7-7-7--5--5-5-5-5--5--5-5-5-5--2--2-2-2-2--2--2-2-2-2--3--3-3-3-3-|
verse|---------------------------------||---------------------------------||---------------------------------||---------------------------5-5-5-||-2-----------5--2-2-2-2-2--3-3-3-||-0--0-0-0-0----------------------|
|------------------------------------------------------------------------------------------||------------------------------------------------------------------------------------------||------------------------------------------------------------------------------------------||------------------------------------------7--5--4------------------------------------5-4-2||-7--7-7-7-7--7--7-7-7-7--5--5-5-5-5--5-5--5--3--2--4--4-4-4-4--4--4-4-4-4--5-5-5-5-5-3-2-0||-5--5-5-5-5--5--5-5-5-5--3--3-3-3-3--3-3-----------2--2-2-2-2--2--2-2-2-2--3-3-3-3-3------|
|------------------------------------------------------------------------------------------||------------------------------------------------------------------------------------------||------------------------------------------------------------------------------------------||------------------------------------------7--5--4------------------------------------5-4-2||-7--7-7-7-7--7--7-7-7-7--5--5-5-5-5--5-5--5--3--2--4--4-4-4-4--4--4-4-4-4--5-5-5-5-5-3-2-0||-5--5-5-5-5--5--5-5-5-5--3--3-3-3-3--3-3-----------2--2-2-2-2--2--2-2-2-2--3-3-3-3-3------|
|--------------------------------------------------------------------------||--------------------------------------------------------------------------||--------------------------------------------------------------------------||9-9999-12-12-9-9999-10-10-10-9-9999-12-12-12-12-12--10-10-10-10-10--9--9--||7-7777-10-10-7-7777-8--8--8--7-7777-10-10-10-10-10--8--8--8--8--8---7--7--||0-0000-0--0--0-0000-0--0--0--0-0000-0--0--0--0--0---0--0--0--0--0---0--0--|
|--------------------------------------------------------------------------||--------------------------------------------------------------------------||--------------------------------------------------------------------------||9-9999-12-12-9-9999-10-10-10-9-9999-12-12-12-12-12--10-10-10-10-10--9--9--||7-7777-10-10-7-7777-8--8--8--7-7777-10-10-10-10-10--8--8--8--8--8---7--7--||0-0000-0--0--0-0000-0--0--0--0-0000-0--0--0--0--0---0--0--0--0--0---0--0--|
|---------------------------------------||---------------------------------------||---------------------------------------||---------------------------------------||-2-----------2-----------2-----------3-||-0--0-0-0-0--0--0-0-0-0--0--0-0-0-0--1-|
|-----------------------------------------------||-----------------------------------------------||-----------------------------------------------||-------------------------------------12-12-12--||-2-----------2-----------2-----------10-10-10--||-0--0-0-0-0--0--0-0-0-0--0--0-0-0-0------------|
|---------------------------------------||---------------------------------------||---------------------------------------||---------------------------------------||-2-----------2-----------2-----------3-||-0--0-0-0-0--0--0-0-0-0--0--0-0-0-0--1-|
|-----------------------------------------------||-----------------------------------------------||-----------------------------------------------||-------------------------------------12-12-12--||-2-----------2-----------2-----------10-10-10--||-0--0-0-0-0--0--0-0-0-0--0--0-0-0-0------------|
solo|--------------------------------------------------------------------------------------||--------------------------------------------------------------------------------------||-14b-14b--14b-14b--12h14p12-----------------------------------------------------12----||----------------------------14p12-14p12----12-14--------------12----12-14-12-14----14-||----------------------------------------14--------12-14-12-14----14-------------------||--------------------------------------------------------------------------------------|
2 times |-------------------------------|----------------|---------------------------------------||--------------12----12-15b-15b-|----------------|---------------------------------------||-12-14-12-14-----14------------|-14-14-14p12----|-----------------------------4p2---2---||-------------------------------|-------------14-|-14-14-14p12----12---------------4---4-||-------------------------------|----------------|-------------14----14-12-14------------||-------------------------------|----------------|---------------------------------------|
bar|-------------------------------|----------------------------------------------------------||-------------------------------|-------------------------------------------------12----12-||-------------------------------|-------------------------------12----12-14-12-14----14----||2-4-2---2----------------------|-------------12----12-14-12-14----14----------------------||------4---4p2-4-2---2----------|-12-14-12-14----14----------------------------------------||------------------4---4-2--0---|----------------------------------------------------------|
repeat |-----|-------------|-12--15-15bp12-----------------------------------------------||-15~-|-15-15p12----|---------------15bp12-------------12-------------------------||-14~-|----------14-|----------------------14bp12------12--3b--3b--3b--3b--3b--3b-||-----|-------------|-----------------------------14~~----------------------------||-----|-------------|-------------------------------------------------------------||-----|-------------|-------------------------------------------------------------|
|---------------------------------------------------------------------12-12---------12-12-||--------------------5-5---------5-5--------5--8--10-12--15b------12b-12-12-----12b-12-12-||-2--2h4p2---2-------4-4---------4-4--------4--7--9--11--14b--14b-14b-------14b-14b-------||----------4---4--2--2-2--2-2-2-------2-2-2-----------------------------------------------||-----------------------------------------------------------------------------------------||-----------------------------------------------------------------------------------------|
|-----------------------12-15-15b-------------------------------------------------------||----12-15p12-----12-15-----------------------------------------------------------------||-14-----------14--------------------------------12hh14p12-12---------------------------||-----------------------------------12hh14p12h14--------------14-12h14p12--12hh14p12h14-||---------------------------------------------------------------------------------------||---------------------------------------------------------------------------------------|
|-----------------------------------------------------------------------------------------||-----------------------------------------------------------------------------------------||-12hh14p12-12---------------------------12hh14p12-12-------------------------------------||--------------14-12h14p12--12hh14p12h14--------------14-12h14p12----12-------------------||-----------------------------------------------------------------14----14-12h14p12----12-||-----------------------------------------------------------------------------------15----|
bar|-------------------------------------||-------------------------------------||-------------------------------------||-------------------------------------||-------------------------------------||15-12h14-12\----0--------------------|
|---------------------------------------||---------------------------------------||---------------------------------------||---------------------------------------||-2-----------2-----------2-----------3-||-0--0-0-0-0--0--0-0-0-0--0--0-0-0-0--1-|
|-----------------------------------------------||-----------------------------------------------||-----------------------------------------------||-------------------------------------12-12-12--||-2-----------2-----------2-----------10-10-10--||-0--0-0-0-0--0--0-0-0-0--0--0-0-0-0------------|
Please rate this tab:
x1.0