Dirty Rotten Imbeciles - Blockhead tab

Blockhead
by D.R.I>

Intro

|---------------------------------------------||----------11--------------------11-----------||-------12-----------12-------12-----------12-||----12-----------12-------12-----------12----||-10-----------10-------10-----------10-------||---------------------------------------------|
|---------------------------------------------||-----------------------------------10--------||----------11-------------------10-----11-----||-------12-----------12------11-----------12--||----12-----------12------11------------------||-10-----------10-------9---------------------|
|---------------------------------------------||----------11--------------------11--------12-||-------12-----------12-------12--------------||----12-----------12-------12-----------12----||-10-----------10-------10-----------10-------||---------------------------------------------|
|---------------------------||---------------------------||----------11------------8--||-------12-----------12-10--||----12-----------12----10--||-10-----------10--------8--|
Verse 1
|-------------------------------------------------||-------------------------------------------------||-------------------------------------------------||-------------10-10-12-12-------------10-10-12-12-| x2|-12-12-10-10--8--8-10-10-12-12-10-10--8--8-10-10-||-10-10--8--8-------------10-10--8--8-------------|
Verse 2
|-------------------------------------------------||-------------------------------------------------||-------------------------------------------------||-------------10-10-12-12-------------10-10-12-12-| |-12-12-10-10--8--8-10-10-12-12-10-10--8--8-10-10-||-10-10--8--8-------------10-10--8--8-------------|
|-------------------------------------------------||-------------------------------------------------||-------------------------------------------------||-------------10-10-12-12-------------10----------||-12-12-10-10--8--8-10-10-12-12-10-10--8----------||-10-10--8--8-------------10-10--8--8-------------|
Chorus
|-------------------------------------------------||-------------------------------------------------||-13-13-13-13-12-12-10-10-13-13-13-13-13-13-13-13-||-13-13-13-13-12-12-10-10-13-13-13-13-13-13-13-13-| x2|-11-11-11-11-10-10--8--8-11-11-11-11-11-11-11-11-||-------------------------------------------------|
Song Order- Intro Verse 1 Chorus Verse 2 Chorus Verse 1 Chorus Verse 2 Verse 2 then everyone yells BLOCKHEAD !!!!! great song. pretty good band. Great political punk/grind
Tap to rate this tab
 
# A B C D E F G H I J K L M N O P Q R S T U V W X Y Z