Disciple – Battle Lines tab ver. 2

It's been a while since my last post and still no one has come out with a full tab. So 
without further a due, here is the Battle Lines tab.

As far as I can tell it is 100% accurate. I played around on this song for hours trying 
to get everything,
even slowed some sections down to hear what was going on. Hope you guys enjoy playing 
this song as much as I do!

Just want to say thank you Disciple for such an awesome song and for destroying my 
throat every time I scream to it.

|C#
|G#
|E
|B
|A
|b

IntroGuitar 1&2 |Capo 1||---------------------------------||---------------------------------||---------------------------------||---------------------------------||-------6-5---------------3-5-----||-0-0-0-----7-6-5-0-3-5-0-----3-5-|
|---------------------------------||---------------------------------||---------------------------------||---------------------------------||-------6-5---------------3b------||-0-0-0-----7-6-5-0-3-5-0---------|
|---------------------------------||---------------------------------||---------------------------------||---------------------------------||-------6-5---------------3-5-----||-0-0-0-----7-6-5-0-3-5-0-----3-5-|
|---------------------------------||---------------------------------||---------------------------------||---------------------------------||-------6-5-----------------------||-0-0-0-----7-6-5-0-3-5-0-0-------|
|No Capo||---------------------------------||---------------------------------||---------------------------------||---------------------------------||-------6-5---------------3-5-----||-0-0-0-----7-6-5-0-3-5-0-----3-5-|
|---------------------------------||---------------------------------||---------------------------------||---------------------------------||-------6-5---------------3b------||-0-0-0-----7-6-5-0-3-5-0---------|
|---------------------------------||---------------------------------||---------------------------------||---------------------------------||-------6-5---------------3-5-----||-0-0-0-----7-6-5-0-3-5-0-----3-5-|
|---------------------------------||---------------------------------||-------------------------5b*-----||-------------------------5b*-----||-------6-5-----------------------||-0-0-0-----7-6-5-0-3-5-0---------|
Verse "Just a taste and your eyes will be opened, gonna see everything like a God tonight."
Guitar 1&2|-----------------------------------||-----------------------------------||-----------------------------------||-----------------------------------||---------6---5-------------058057--||-000-0-0---0---0-6-0-5-0-0---------| ... . . . . . . ."You keep saying this over and over, we're no longer slaves that you victimize."
|-----------------------------------||-----------------------------------||-----------------------------------||-----------------------------------||---------6---5-----------------3-5-||-000-0-0---0---0-6-0-5-0-0-3-5-----|
... . . . . . . .Pre-ChorusGuitar 1|----------------||----------------||----------------||---8----7---6---||---8----7---5---||---8----7---0---|
Guitar 2|-----------------------------------||---6-5-6-5-6-5-6-5-6-5-6-5-6-9-----||-----------------------------7-----||-----------------------------------||-----------------------------------||-----------------------------------|
Chorus It's easier and feels better if the first two power chords of each phrase are up-strokes
|----------------------------------------------------------------||----------------------------------------------------------------||----------------------------------------------------------------||--0---0-0-0-0---3---3-3-3-3-8-8-8-8-8-8-8-8-7-7-7-7-10-10-10-10-||--0---0-0-0-0---3---3-3-3-3-8-8-8-8-8-8-8-8-7-7-7-7-10-10-10-10-||--0---0-0-0-0---3---3-3-3-3-8-8-8-8-8-8-8-8-7-7-7-7-10-10-10-10-|
|------------------------------------------------------------||------------------------------------------------------------||------------------------------------------------------------||--0---0-0-0-0---3---3-3-3-3-8-8-8-8-8-8-8-8-7-7-7-7-7-7-7-7-||--0---0-0-0-0---3---3-3-3-3-8-8-8-8-8-8-8-8-7-7-7-7-7-7-7-7-||--0---0-0-0-0---3---3-3-3-3-8-8-8-8-8-8-8-8-7-7-7-7-7-7-7-7-|
Guitar 1|------------------------------------------||------------------------------------------||------------------------------------------||--0---0-0----3---3-3----8-8-8-8-7-7-10-10-||--0---0-0----3---3-3----8-8-8-8-7-7-10-10-||--0---0-0----3---3-3----8-8-8-8-7-7-10-10-|
Guitar 2|-----------------------------||-6-5-6-8---------6-5-6-8-5-8-||---------5-7-5---------------||-----------------------------||-----------------------------||-----------------------------|
Guitar 1|--------------------------------||--------------------------------||--------------------------------||-8888888888888888777777777----6-||-8888888888888888777777777----5-||-8888888888888888777777777----0-|
Guitar 2|--------------------------------||-6666666666666666888888888----9-||------------------------------7-||--------------------------------||--------------------------------||--------------------------------|
Interlude|---------------------------------||---------------------------------||---------------------------------||---------------------------------||-------6-5---------------3-5-----||-0-0-0-----7-6-5-0-3-5-0-----3-5-|
|---------------------------------||---------------------------------||-------------------------5b*-----||-------------------------5b*-----||-------6-5-----------------------||-0-0-0-----7-6-5-0-3-5-0---------|
VerseGuitar 2|----| repeat x24 as 1/8 notes|----||-14-||-12-||----||----|
Guitar 1&2|-----------------------------------||-----------------------------------||-----------------------------------||-----------------------------------||---------6---5-------------058057--||-000-0-0---0---0-6-0-5-0-0---------|
... . . . . . . .Guitar 2|----| repeat x16 |----| repeat x16 both as 1/8 notes, and all connected|----| |----||-14-| |-13-||-12-| |-12-||----| |----||----| |----|
Guitar 1&2|-----------------------------------||-----------------------------------||-----------------------------------||-----------------------------------||---------6---5-----------------3-5-||-000-0-0---0---0-6-0-5-0-0-3-5-----| ... . . . . . . .Pre-Chorus
Chorus
BridgeGuitar 1|---------------------------------------------||---------------------------------------6-6-6-||---------------------------------------9-9-9-||-1-0--0--00100--0000001-0--0--00100----------||-1-0--0--00100--0000001-0--0--00100----------||-1-0--0--00100--0000001-0--0--00100----------|
......Guitar 2|----| repeat x32 as 1/8 notes|----||-14-||-12-||----||----|
Guitar 1|-------------------------------------------||-------------------------------------------||-------------------------------------------||-1-0--0--00100--0000001-0--0--00100----12/-||-1-0--0--00100--0000001-0--0--00100----12/-||-1-0--0--00100--0000001-0--0--00100----12/-|
......Guitar 2|----| repeat x32 as 1/8 notes|----||-14-||-12-||----||----|
Guitar 1|---------------------------------------------||---------------------------------------6-6-6-||---------------------------------------9-9-9-||-1-0--0--00100--0000001-0--0--00100----------||-1-0--0--00100--0000001-0--0--00100----------||-1-0--0--00100--0000001-0--0--00100----------|
......Guitar 2|---- x16 as 1/8 ---- x8 as 1/8 ----| x8 as 1/8|---- -13- -16-||-14- -14- -14-||-12- --------------------||-------------------------------------||-------------------------------------|
Guitar 1|-----------------------------------------||-----------------------------------------||-----------------------------------------||-1-0--0--00100--0000001-0--0--00100----1-||-1-0--0--00100--0000001-0--0--00100----1-||-1-0--0--00100--0000001-0--0--00100----1-|
......Guitar 2|---- x16 as 1/8 ---- x8 as 1/8 ----| x8 as 1/8|---- -13- -16-||-14- -14- -14-||-12- --------------------||-------------------------------------||-------------------------------------|
ChorusGuitar 1|--------------||--------------||--------------||--0---0-0-0-0-||--0---0-0-0-0-||--0---0-0-0-0-|
Guitar 2|--------------||--------------||--------------||--3---3-3-3-3-||--3---3-3-3-3-||--3---3-3-3-3-|
Guitar 1&2|-------------------------------------||-------------------------------------||-------------------------------------||-8-8-8-8-8-8-8-8-7-7-7-7-10-10-10-10-||-8-8-8-8-8-8-8-8-7-7-7-7-10-10-10-10-||-8-8-8-8-8-8-8-8-7-7-7-7-10-10-10-10-|
|------------------------------------------------------------||------------------------------------------------------------||------------------------------------------------------------||--0---0-0-0-0---3---3-3-3-3-8-8-8-8-8-8-8-8-7-7-7-7-7-7-7-7-||--0---0-0-0-0---3---3-3-3-3-8-8-8-8-8-8-8-8-7-7-7-7-7-7-7-7-||--0---0-0-0-0---3---3-3-3-3-8-8-8-8-8-8-8-8-7-7-7-7-7-7-7-7-|
Guitar 1|------------------------------------------||------------------------------------------||------------------------------------------||--0---0-0----3---3-3----8-8-8-8-7-7-10-10-||--0---0-0----3---3-3----8-8-8-8-7-7-10-10-||--0---0-0----3---3-3----8-8-8-8-7-7-10-10-|
Guitar 2|-----------------------------||-6-5-6-8---------6-5-6-8-5-8-||---------5-7-5---------------||-----------------------------||-----------------------------||-----------------------------|
Guitar 1|---------------------------||---------------------------||---------------------------||-8888888888888888777777777-||-8888888888888888777777777-||-8888888888888888777777777-|
Guitar 2|---------------------------||-6666666666666666888888888-||---------------------------||---------------------------||---------------------------||---------------------------|
Outro|---------------------------------||---------------------------------||---------------------------------||---------------------------------||-------6-5---------------3-5-----||-0-0-0-----7-6-5-0-3-5-0-----3-5-|
|----------------------------||----------------------------||----------------------------||----------------------------||-------6-5------------------||-0-0-0-----7-6-5-0-3-5-0-0--| Whammy bend or bend the neck down
Legend --------- * pinch harmonic / slide down . palm mute
Please rate this tab:
x1.0