Disidente - Albert Einstein tab

|-55-5-5-||-55-5-8-||-55-7-7-||----7---||--------||--------|
|-555/8-8-5||-555/8-8-5||-555/8-8-5||-777/1010-7||-----------||-----------|
|-8-8---77-00||-8-8---77-55||-8-8---77-77||-1010-99-77||------------||------------|
|-55-5-5-||-55-5-8-||-55-7-7-||----7---||--------||--------|
|-555/8-8-5||-555/8-8-5||-555/8-8-5||-777/1010-7||-----------||-----------|
|-8-8---77-00||-8-8---77-55||-8-8---77-77||-1010-99-77||------------||------------|
|55-8-55-||55-8-55-||55-8-55-||--------||--------||--------|
|---------------------||---------------------||---------------------||---------------------||------------7--------||---------------------||-9999999999---9999999|
|-8-8---77-00||-8-8---77-55||-8-8---77-77||-1010-99-77||------------||------------|
|55-8-55-||55-8-55-||55-8-55-||--------||--------||--------|
sta medio malechone, pero ps ahi sta! ahi arreglenla no? saludos!! http://metroflog.com/x_xroyx_x x)
Tap to rate this tab
 
# A B C D E F G H I J K L M N O P Q R S T U V W X Y Z