Dispatch - Wide Right Turns tab

-----------------------------|-1p0--1p0--1p0--3p0-3p0-3p0--|-----------------------------| x6-----------------------------|-----------------------------|-----------------------------|
--------------------------------|-1p0--1p0--1p0--3p0-3p0-3p0--3--|--------------------------------| x1--------------------------------|--------------------------------|--------------------------------|
----------------------------------------------------10--|----------------------------------------------------10--|----5---5s7-x-7-----5-5-x-5s7-7-----5-5s7-7-7-7s10--10--| x1------x--------------------------0----------------------|-s5--------------s5----------------5--------------------|--------------------------------------------------------|
-------------------------------------------------------------|-------------------------------------------------------------|-----5--5--5--5s7---5-5-5s7--7--7----5-5-5-5-5-5-5-5-5s7--7--| x1-----------------------------------0-------------------------|-5-5---------------------------------------------------------|-------------------------------------------------------------|
-----------------------------------------|-----------------------------------------|-----------------------------------------| x1-4h5-4-0---4h5-4-7---4h5-4-2s0--0s4-4s0--|-----------------------------------------|-----------------------------------------|
----------------------------------------|-1---1---1----1---1--3---3---3---3---3--|---2---2----2---2------2---2---2---2----| x3----------------------------------------|----------------------------------------|----------------------------------------|
---0---0---0---0---0------1---1---1---1---1--1--|------------------------------------------------|-2---2---2---2---2---2--2---2---2---2---2-------| x1------------------------------------------------|------------------------------------------------|------------------------------------------------|
LEAD:-1-1--1-1--1-1--1--1------------------------------1---1----1-3-3b5-5-5-5r3-1--|---------------------3--3-3--1-1-1-1-1-1-3--3-3-----3---3---------------------|------------------------------------------------------------------------------|------------------------------------------------------------------------------|------------------------------------------------------------------------------|------------------------------------------------------------------------------|
-1-1--1-1--1-1--1--1------------------------------1---1---1---1--------1--1-1-0--1-0-------------|---------------------3--3-3--1-1-1-1-1-1-3--3-3-----3---3---3---3--3-3---------------3--3-3-3s5--|-------------------------------------------------------------------------------------------------|-------------------------------------------------------------------------------------------------|-------------------------------------------------------------------------------------------------|-------------------------------------------------------------------------------------------------|
-1-1--1-1--1-1--1--1------------------------------1---1---1---1----|---------------------3--3-3--1-1-1-1-1-1-3--3-3-----3---3---3---3--|-------------------------------------------------------------------|-------------------------------------------------------------------|-------------------------------------------------------------------|-------------------------------------------------------------------|
-----------------------------------------------------------------------------------------------------|-1p0--1p0--1p0--3p0-3p0-3p0---1p0--1p0--1p0--3p0-3p0-3p0---1p0--1p0--1p0--3p0-3p0-3p0---1p0--1p0--0--|-----------------------------------------------------------------------------------------------------|x1-----------------------------------------------------------------------------------------------------|-----------------------------------------------------------------------------------------------------|-----------------------------------------------------------------------------------------------------|
-0-1--0-1--0-1--0-1--0--|-1-3--1-3--1-3--1-3--1--|------------------------| x1------------------------|------------------------|------------------------|
--------------------------------|----3-----3-----3----5---5---5--|-2-----2-----2-----4---4---4----| x4--------------------------------|--------------------------------|--------------------------------|
--------------------------------0--|----3-----3-----3----5---5---5--5--|-2-----2-----2-----4---4---4----4--| x1-----------------------------------|-----------------------------------|-----------------------------------|
Tap to rate this tab
 
# A B C D E F G H I J K L M N O P Q R S T U V W X Y Z