Distillers - Beat Your Heart Out tab version 2

One of my favorite songs by The Distillers. The strumming pattern is hard to write out 
so you might have to listen for that and the palm muting. I did a cover of this so if you 
would like to see how it is played here is the link:
http://www.youtube.com/watch?v=lcaiAAIIllo
Hope you enjoy!


Standard Tuning

Intro

|----------------------------------------------------||----------------------------------------------------||-33333333333333-5-333333333333333-5-----------------||-33333333333333-5-333333333333333-5-----------------||-11111111111111-3-111111111111111-3-----------------||----------------------------------------------------|
Chorus:
Baby you make my heart beat faster...|-----------------------------------------------------||-----------------------------------------------------||-7777777777777777------------------------------------||-7777777777777777-5555555555555555-------------------||-5555555555555555-5555555555555555-------------------||------------------3333333333333333-------------------|
I know...
|------------------------------------------------------||------------------------------------------------------||-------------333333333333333-5------------------------||-22222-55555-333333333333333-5------------------------||-22222-55555-111111111111111-3------------------------||-00000-33333------------------------------------------|
Verse: Let alone to rest alone....
|-----------------------------------------------------------------------||-----------------------------------------------------------------------||-7777777777777777------------------------------------------------------||-7777777777777777-55555555-44444444------------------------------------||-5555555555555555-55555555-44444444------------------------------------||------------------33333333-22222222------------------------------------|
I had to run....
|-----------------------------------------------------||-----------------------------------------------------||-7777777777777777------------------------------------||-7777777777777777-44444444-55555555------------------||-5555555555555555-44444444-55555555------------------||------------------22222222-33333333------------------|
There's nothing left...
|-----------------------------------------------------------------------||-----------------------------------------------------------------------||-7777777777777777------------------------------------------------------||-7777777777777777-55555555-44444444------------------------------------||-5555555555555555-55555555-44444444------------------------------------||------------------33333333-22222222------------------------------------|
I set a light....
|-----------------------------------------------------||-----------------------------------------------------||-7777777777777777------------------------------------||-7777777777777777-44444444-55555555------------------||-5555555555555555-44444444-55555555------------------||------------------22222222-33333333------------------|
|----------------------------------------------------||----------------------------------------------------||-33333333333333-5-333333333333333-5-----------------||-33333333333333-5-333333333333333-5-----------------||-11111111111111-3-111111111111111-3-----------------||----------------------------------------------------|
Chorus:
Baby you make my heart beat faster...|-----------------------------------------------------||-----------------------------------------------------||-7777777777777777------------------------------------||-7777777777777777-5555555555555555-------------------||-5555555555555555-5555555555555555-------------------||------------------3333333333333333-------------------|
I know...
|---------------------------------------------------------------------||---------------------------------------------------------------------||---------------------------------------------------------------------||-22222-55555-22222222-55555555-22222222-55555555---------------------||-22222-55555-22222222-55555555-22222222-55555555---------------------||-00000-33333-00000000-33333333-00000000-33333333---------------------|
Verse 2: I had to run....
|-----------------------------------------------------||-----------------------------------------------------||-7777777777777777------------------------------------||-7777777777777777-44444444-55555555------------------||-5555555555555555-44444444-55555555------------------||------------------22222222-33333333------------------|
I had to go....
|-----------------------------------------------------------------------||-----------------------------------------------------------------------||-7777777777777777------------------------------------------------------||-7777777777777777-55555555-44444444------------------------------------||-5555555555555555-55555555-44444444------------------------------------||------------------33333333-22222222------------------------------------|
There's nothing left....
|-----------------------------------------------------||-----------------------------------------------------||-7777777777777777------------------------------------||-7777777777777777-44444444-55555555------------------||-5555555555555555-44444444-55555555------------------||------------------22222222-33333333------------------|
I set a light...
|-----------------------------------------------------------------------||-----------------------------------------------------------------------||-7777777777777777------------------------------------------------------||-7777777777777777-55555555-44444444------------------------------------||-5555555555555555-55555555-44444444------------------------------------||------------------33333333-22222222------------------------------------|
Chorus:
Baby you make my heart beat faster...|-----------------------------------------------------||-----------------------------------------------------||-7777777777777777------------------------------------||-7777777777777777-5555555555555555-------------------||-5555555555555555-5555555555555555-------------------||------------------3333333333333333-------------------|
I know...
|---------------------------------------------------------------------||---------------------------------------------------------------------||-------------------------------333333333333333-5---------------------||-22222-55555-22222222-55555555-333333333333333-5---------------------||-22222-55555-22222222-55555555-111111111111111-3---------------------||-00000-33333-00000000-33333333---------------------------------------|
Verse 3: Let alone to rest alone (ohhhhhh)....
|-----------------------------------------------------------------------||-----------------------------------------------------------------------||-7777777777777777-44444444---------------------------------------------||-7777777777777777-44444444-44444444------------------------------------||-5555555555555555-22222222-44444444------------------------------------||---------------------------22222222------------------------------------|
Let alone to rest alone (ohhhhhh)....
|-----------------------------------------------------------------------||-----------------------------------------------------------------------||-7777777777777777-44444444---------------------------------------------||-7777777777777777-44444444-44444444------------------------------------||-5555555555555555-22222222-44444444------------------------------------||---------------------------22222222------------------------------------|
Let alone to rest alone (ohhhhhh).....
|-----------------------------------------------------------------------||-----------------------------------------------------------------------||-7-7-7777777777777777-44444444-----------------------------------------||-7-7-7777777777777777-44444444-44444444--------------------------------||-5-5-5555555555555555-22222222-44444444--------------------------------||-------------------------------22222222--------------------------------|
|-----------------------------------------------------------------------||-----------------------------------------------------------------------||------------------44444444---------------------------------------------||-6666666666666666-44444444-44444444-6666666666666666-------------------||-6666666666666666-22222222-44444444-6666666666666666-------------------||-3333333333333333----------22222222-3333333333333333-------------------|
Chorus:
Baby you make my heart beat faster... (x2)|-----------------------------------------------------||-----------------------------------------------------||-7777777777777777------------------------------------||-7777777777777777-5555555555555555-------------------||-5555555555555555-5555555555555555-------------------||------------------3333333333333333-------------------|
Baby...
|-----------------------------------------------------||-----------------------------------------------------||-3-3-333333333333------------------------------------||-3-3-333333333333-5555555555555555-------------------||-1-1-111111111111-5555555555555555-------------------||------------------3333333333333333-------------------|
Pre - Chorus: There's nothing left so take the rest (x2)
|-----------------------------------------------------------------------||-----------------------------------------------------------------------||-7777777777777777------------------------------------------------------||-7777777777777777-55555555-44444444------------------------------------||-5555555555555555-55555555-44444444------------------------------------||------------------33333333-22222222------------------------------------|
Chorus:
Baby you make my heart beat faster...|-----------------------------------------------------||-----------------------------------------------------||-7777777777777777------------------------------------||-7777777777777777-5555555555555555-------------------||-5555555555555555-5555555555555555-------------------||------------------3333333333333333-------------------|
Baby...(x2)
|-----------------------------------------------------||-----------------------------------------------------||-3-3-333333333333------------------------------------||-3-3-333333333333-5555555555555555-------------------||-1-1-111111111111-5555555555555555-------------------||------------------3333333333333333-------------------|
Let alone
|-------------------------------------------------------||-------------------------------------------------------||-7-7---------------------------------------------------||-7-7---------------------------------------------------||-5-5---------------------------------------------------||-------------------------------------------------------|
Tap to rate this tab
 
# A B C D E F G H I J K L M N O P Q R S T U V W X Y Z