Disturbed - Warrior tab version 1

Title: Warrior
Artist: Disturbed
Album: Asylum
Copyright: Disturbed
Tabber: Steve
Tempo = 200
Lead Guitar

Legend
L - tied note
x - dead note
h - hammer on/pull off
b - bend
s - slide
~ - vibrato
g - ghost note
> - accentuated note
t - trill
M - palm mute
. - staccato
P - popping (bass)
S - slapping (bass)
+ - tapping
W - wide vibrato
< - fade in
w - whammy bar
= - tremolo picking
v - brush up
^ - brush down
V - pick stroke up
n - pick stroke down

                                                             
D |----------------------------|----------------------------|A |----------------------------|----------------------------|F |----------------------------|----------------------------|C |----------------------------|----------------------------|G |--8h-5--------------6h-5----|--6h-5--------8h-5----------|C |--------0--0--0--0----------|--------0--0--------0--0----|
----------------------------|----------------------------|----------------------------|----------------------------|----------------------------|----------------------------|----------------------------|----------------------------|-----8h-5--6h-5-------------|--3h-5----------------------|--0--------------0--0--0----|--------0--0--0--0--5h-6----|
----------------------------|----------------------------|----------------------------|----------------------------|----------------------------|----------------------------|----------------------------|----------------------------|--8h-5--------------6h-5----|--6h-5--------8h-5----------|--------0--0--0--0----------|--------0--0--------0--0----|
W----------------------------|----------------------------|----------------------------|----------------------------|----------------------------|----------------------------|----------------------------|----------------------------|-----8h-5--6h-5-------------|--3h-5-----------8----------|--0--------------0--0--0----|--------0--0--0-------------|
----------------------------|----------------------------|----------------------------|----------------------------|----------------------------|----------------------------|----------------------------|----------------------------|--8h-5--------------6h-5----|--6h-5--------8h-5----------|--------0--0--0--0----------|--------0--0--------0--0----|
----------------------------|----------------------------|----------------------------|----------------------------|----------------------------|----------------------------|----------------------------|----------------------------|-----8h-5--6h-5-------------|--3h-5----------------------|--0--------------0--0--0----|--------0--0--0--0--5h-6----|
----------------------------|----------------------------|----------------------------|----------------------------|----------------------------|----------------------------|--5--------5--5--5--1L------|--1--1--1--1--7-------------|--5--------5--5--5--1L------|--1--1--1--1--7-------------|--5--------5--5--5--1L------|--1--1--1--1--7-------------|
----------------------------|----------------------------|----------------------------|----------------------------|----------------------------|----------------------------|----------------------------|----------------------------|--8h-5--------------6h-5----|--6h-5--------8h-5----------|--------0--0--0--0----------|--------0--0--------0--0----|
----------------------------|----------------------------|----------------------------|----------------------------|----------------------------|----------------------------|----------------------------|----------------------------|-----8h-5--6h-5-------------|--3h-5----------------------|--0--------------0--0--0----|--------0--0--0--0--5h-6----|
----------------------------|----------------------------|----------------------------|----------------------------|----------------------------|----------------------------|----------------------------|----------------------------|--8h-5--------------6h-5----|--6h-5--------8h-5----------|--------0--0--0--0----------|--------0--0--------0--0----|
----------------------------|----------------------------|----------------------------|----------------------------|----------------------------|----------------------------|----------------------------|----------------------------|-----8h-5--6h-5-------------|--3h-5-----------3--3--3----|--0--------------0--0--0----|--------0--0--0--3--3--3----|
----------------------------|----------------------------|----------------------------|----------------------------|----------------------------|----------------------------|----------------------------|----------------------------|--8h-5--------------6h-5----|--6h-5--------8h-5----------|--------0--0--0--0----------|--------0--0--------0--0----|
----------------------------|----------------------------|----------------------------|----------------------------|----------------------------|----------------------------|----------------------------|----------------------------|-----8h-5--6h-5-------------|--3h-5----------------------|--0--------------0--0--0----|--------0--0--0--0--5h-6----|
----------------------------|----------------------------|----------------------------|----------------------------|----------------------------|----------------------------|----------------------------|----------------------------|--8h-5--------------6h-5----|--6h-5--------8h-5----------|--------0--0--0--0----------|--------0--0--------0--0----|
----------------------------|----------------------------|----------------------------|----------------------------|----------------------------|----------------------------|----------------------------|----------------------------|-----8h-5--6h-5-------------|--3h-5-----------3--3--3----|--0--------------0--0--0----|--------0--0--0--3--3--3----|
----------------------------|----------------------------|----------------------------|----------------------------|----------------------------|----------------------------|----------------------------|----------------------------|----------------------------|----------------------------|--5--5--5--5--5--5--7--7----|--7--7--8--8--7--7--8--7----|
----------------------------|----------------------------|----------------|----------------------------|----------------------------|----------------|----------------------------|----------------------------|----------------|----------------------------|----------------------------|----------------|--6--6--6--6--6--6--6--6----|----------------------------|--0M-0M---------|----------------------------|--9b-------9b-------9b------|--0M-0M-13s0----|
----------------------------|----------------------------|----------------------------|----------------------------|-----5--8-------------------|-----------5--7-------------|--7-------------------------|--------7-------------------|--------------0M-0M---------|--0M-0M-------------0--0----|--------------0M-0M-12s-----|--0M-0M-------------0--0----|
----------------------------|----------------|----------------------------|----------------------------|----------------|----------------------------|----------------------------|----------------|-----5--8-------------------|----------------------------|----------------|--7-------------------------|--3h-5----------------------|--0M-0M---------|--------------0M-0M---------|--------0--0--0--0--5h-6----|--0M-0M-13s0----|--------------0M-0M-12s-----|
----------------------------|----------------------------|----------------------------|----------------------------|-----------5--7-------------|----------------------------|--------7-------------------|----------------------------|--0M-0M-------------0--0----|--3h-5-----------3----------|--0M-0M-------------0--0----|--------0--5--6-----6--5----|
----------------------------|----------------------------|----------------------------|----------------------------|--12-12-12-12-12-12-12-12---|--12-12-12-12-12-12-12-12---|--x--x--x--x--x--x--x--x----|--x--x--x--x--x--x--x--x----|--10-10-10-10-10-10-10-10---|--10-10-10-10-10-10-10-10---|----------------------------|----------------------------|
----------------------------|----------------------------|----------------------------|----------------------------|--10-10-10-10-10-10-10-10---|--10-10-10-10-10-10-10-10---|--x--x--x--x--x--x--x--x----|--x--x--x--x--x--x--x--x----|--8--8--8--8--8--8--8--8----|--8--8--8--8--8--8--8--8----|----------------------------|----------------------------|
----------------------------|----------------------------|----------------------------|----------------------------|--9--9--9--9--9--9--9--9----|--9--9--9--9--9--9--9--9----|--x--x--x--x--x--x--x--x----|--x--x--x--x--x--x--x--x----|--7--7--7--7--7--7--7--7----|--7--7--7--7--7--7--7--7----|----------------------------|----------------------------|
----------------------------|----------------------------|----------------------------|----------------------------|--8--8--8--8--8--8--8--8----|--8--8--8--8--8--8--8--8----|--x--x--x--x--x--x--x--x----|--x--x--x--x--x--x--x--x----|--6--6--6--6--6--6--6--6----|--6--6--6--6--6--6--6--6----|----------------------------|----------------------------|
----------------------------|----------------------------|----------------------------|----------------------------|--12-12-12-12-12-12-12-12---|--12-12-12-12-12-12-12-12---|--x--x--x--x--x--x--x--x----|--x--x--x--x--x--x--x--x----|--10-10-10-10-10-10-10-10---|--10-10-10-10-10-10-10-10---|----------------------------|----------------------------|
----------------------------|----------------------------|----------------------------|----------------------------|--15-15-15-15-15-15-15-15---|--15-15-15-15-15-15-15-15---|--x--x--x--x--x--x--x--x----|--x--x--x--x--x--x--x--x----|--13-13-13-13-13-13-13-13---|--13-13-13-13-13-13-13-13---|----------------------------|----------------------------|
----------------------------|----------------------------|----------------------------|----------------------------|--9--9--9--9--9--9--9--9----|--9--9--9--9--9--9--9--9----|--x--x--x--x--x--x--x--x----|--x--x--x--x--x--x--x--x----|--7--7--7--7--7--7--7--7----|--7--7--7--7--7--7--7--7----|----------------------------|----------------------------|
----------------------------|----------------------------|----------------------------|----------------------------|--13-13-13-13-13-13-13-13---|--13-13-13-13-13-13-13-13---|--x--x--x--x--x--x--x--x----|--x--x--x--x--x--x--x--x----|--11-11-11-11-11-11-11-11---|--11-11-11-11-11-11-11-11---|----------------------------|----------------------------|
----------------------------|----------------------------|----------------------------|----------------------------|----------------------------|----------------------------|----------------------------|----------------------------|--8h-5--------------6h-5----|--6h-5--------8h-5----------|--------0--0--0--0----------|--------0--0--------0--0----|
----------------------------|----------------------------|----------------------------|----------------------------|----------------------------|----------------------------|----------------------------|----------------------------|-----8h-5--6h-5-------------|--3h-5----------------------|--0--------------0--0--0----|--------0--0--0--0--5h-6----|
----------------------------|----------------------------|----------------------------|----------------------------|----------------------------|----------------------------|----------------------------|----------------------------|--8h-5--------------6h-5----|--6h-5--------8h-5----------|--------0--0--0--0----------|--------0--0--------0--0----|
----------------------------|----------------------------|----------------------------|----------------------------|----------------------------|----------------------------|----------------------------|----------------------------|-----8h-5--6h-5-------------|--3h-5----------------------|--0--------------0--0--0----|--------0--0--0--0--5h-6----|
----------------------------|----------------------------|----------------------------|----------------------------|----------------------------|----------------------------|----------------------------|----------------------------|--8h-5--------------6h-5----|--6h-5--------8h-5----------|--------0--0--0--0----------|--------0--0--------0--0----|
----------------------------|----------------------------|----------------------------|----------------------------|----------------------------|----------------------------|----------------------------|----------------------------|-----8h-5--6h-5-------------|--3h-5-----------3--3--3----|--0--------------0--0--0----|--------0--0--0--3--3--3----|
----------------------------|----------------------------|----------------------------|----------------------------|----------------------------|----------------------------|----------------------------|----------------------------|--8h-5--------------6h-5----|--6h-5--------8h-5----------|--------0--0--0--0----------|--------0--0--------0--0----|
----------------------------|----------------------------|----------------------------|----------------------------|----------------------------|----------------------------|----------------------------|----------------------------|-----8h-5--6h-5-------------|--3h-5----------------------|--0--------------0--0--0----|--------0--0--0--0--5h-6----|
----------------------------|----------------------------|----------------------------|----------------------------|----------------------------|----------------------------|----------------------------|----------------------------|--8h-5--------------6h-5----|--6h-5--------8h-5----------|--------0--0--0--0----------|--------0--0--------0--0----|
----------------------------|----------------------------|----------------------------|----------------------------|----------------------------|----------------------------|----------------------------|----------------------------|-----8h-5--6h-5-------------|--3h-5-----------3--3--3----|--0--------------0--0--0----|--------0--0--0--3--3--3----|
----------------------------|----------------------------|----------------------------|----------------------------|----------------------------|----------------------------|----------------------------|----------------------------|----------------------------|----------------------------|--5--5--5--5--5--5--7--7----|--7--7--8--8--7--7--8--7----|
----------------------------|----------------------------|----------------|----------------------------|----------------------------|----------------|----------------------------|----------------------------|----------------|----------------------------|----------------------------|----------------|--6--6--6--6--6--6--6--6----|----------------------------|--0M-0M---------|----------------------------|--9b-------9b-------9b------|--0M-0M-13s0----|
----------------------------|----------------------------|----------------------------|----------------------------|-----5--8-------------------|-----------5--7-------------|--7-------------------------|--------7-------------------|--------------0M-0M---------|--0M-0M-------------0--0----|--------------0M-0M-12s-----|--0M-0M-------------0--0----|
----------------------------|----------------|----------------------------|----------------------------|----------------|----------------------------|----------------------------|----------------|-----5--8-------------------|----------------------------|----------------|--7-------------------------|--3h-5----------------------|--0M-0M---------|--------------0M-0M---------|--------0--0--0--0--5h-6----|--0M-0M-13s0----|--------------0M-0M-12s-----|
----------------------------|----------------------------|----------------------------|----------------------------|-----------5--7-------------|----------------------------|--------7-------------------|----------------------------|--0M-0M-------------0--0----|--3h-5-----------3----------|--0M-0M-------------0--0----|--------0--5--6-----6--5----|
----------------------------|----------------------------|----------------------------|----------------------------|--12-12-12-12-12-12-12-12---|--12-12-12-12-12-12-12-12---|--x--x--x--x--x--x--x--x----|--x--x--x--x--x--x--x--x----|--10-10-10-10-10-10-10-10---|--10-10-10-10-10-10-10-10---|----------------------------|----------------------------|
----------------------------|----------------------------|----------------------------|----------------------------|--10-10-10-10-10-10-10-10---|--10-10-10-10-10-10-10-10---|--x--x--x--x--x--x--x--x----|--x--x--x--x--x--x--x--x----|--8--8--8--8--8--8--8--8----|--8--8--8--8--8--8--8--8----|----------------------------|----------------------------|
----------------------------|----------------------------|----------------------------|----------------------------|--9--9--9--9--9--9--9--9----|--9--9--9--9--9--9--9--9----|--x--x--x--x--x--x--x--x----|--x--x--x--x--x--x--x--x----|--7--7--7--7--7--7--7--7----|--7--7--7--7--7--7--7--7----|----------------------------|----------------------------|
----------------------------|----------------------------|----------------------------|----------------------------|--8--8--8--8--8--8--8--8----|--8--8--8--8--8--8--8--8----|--x--x--x--x--x--x--x--x----|--x--x--x--x--x--x--x--x----|--6--6--6--6--6--6--6--6----|--6--6--6--6--6--6--6--6----|----------------------------|----------------------------|
----------------------------|----------------------------|----------------------------|----------------------------|--12-12-12-12-12-12-12-12---|--12-12-12-12-12-12-12-12---|--x--x--x--x--x--x--x--x----|--x--x--x--x--x--x--x--x----|--10-10-10-10-10-10-10-10---|--10-10-10-10-10-10-10-10---|----------------------------|----------------------------|
----------------------------|----------------------------|----------------------------|----------------------------|--15-15-15-15-15-15-15-15---|--15-15-15-15-15-15-15-15---|--x--x--x--x--x--x--x--x----|--x--x--x--x--x--x--x--x----|--13-13-13-13-13-13-13-13---|--13-13-13-13-13-13-13-13---|----------------------------|----------------------------|
----------------------------|----------------------------|----------------------------|----------------------------|--9--9--9--9--9--9--9--9----|--9--9--9--9--9--9--9--9----|--x--x--x--x--x--x--x--x----|--x--x--x--x--x--x--x--x----|--7--7--7--7--7--7--7--7----|--7--7--7--7--7--7--7--7----|----------------------------|----------------------------|
----------------------------|----------------------------|----------------------------|----------------------------|--13-13-13-13-13-13-13-13---|--13-13-13-13-13-13-13-13---|--x--x--x--x--x--x--x--x----|--x--x--x--x--x--x--x--x----|--11-11-11-11-11-11-11-11---|--11-11-11-11-11-11-11-11---|----------------------------|----------------------------|
----------------------------|----------------------------|----------------------------|----------------------------|--7--7--7--7--7--7--7--7----|--7--7--7--7--7--7--7--7----|----------------------------|----------------------------|----------------------------|----------------------------|----------------------------|----------------------------|
----------------------------|----------------------------|--9--9--9--9--9--9--9--9----|--9--9--9--9--9--9--9--9----|----------------------------|----------------------------|----------------------------|----------------------------|----------------------------|----------------------------|----------------------------|----------------------------|
----------------------------|----------------------------|--8--8--8--8--8--8--8--8----|--8--8--8--8--8--8--8--8----|----------------------------|----------------------------|----------------------------|----------------------------|----------------------------|----------------------------|----------------------------|----------------------------|
----------------------------|----------------------------|--6--6--6--6--6--6--6--6----|----------------------------|----------------------------|--5--5--5--5--5--5--5--5----|----------------------------|----------------------------|----------------------------|----------------------------|----------------------------|----------------------------|
----------------------------|----------------------------|----------------------------|----------------------------|--7--7--7--7--7--7--7--7----|--7--7--7--7--7--7--7--7----|----------------------------|----------------------------|----------------------------|----------------------------|----------------------------|----------------------------|
----------------------------|----------------------------|--9--9--9--9--9--9--9--9----|--9--9--9--9--9--9--9--9----|----------------------------|----------------------------|----------------------------|----------------------------|----------------------------|----------------------------|----------------------------|----------------------------|
----------------------------|----------------------------|--8--8--8--8--8--8--8--8----|--8--8--8--8--8--8--8--8----|----------------------------|----------------------------|----------------------------|----------------------------|----------------------------|----------------------------|----------------------------|----------------------------|
--8--8--8--8--8--8--8--8----|--11-11-11-11-11-11-11-11---|--10s-----------|----------------------------|----------------------------|----------------|----------------------------|----------------------------|----------------|----------------------------|----------------------------|----------------|----------------------------|----------------------------|----------------|----------------------------|----------------------------|----------------|
----------|----------------------------|----------------------------|----------|----------------------------|----------------------------|----------|--7--7--7--7--7--7--7--7----|--7--8--8--8--8--8--8--8----|----------|----------------------------|----------------------------|----------|----------------------------|----------------------------|----------|----------------------------|----------------------------|
----------------------------|----------------------------|----------------------------|----------------------------|--12-12-12-12-12-12-12-12---|--12-12-12-12-12-12-12-12---|--x--x--x--x--x--x--x--x----|--x--x--x--x--x--x--x--x----|--10-10-10-10-10-10-10-10---|--10-10-10-10-10-10-10-10---|----------------------------|----------------------------|
----------------------------|----------------------------|----------------------------|----------------------------|--10-10-10-10-10-10-10-10---|--10-10-10-10-10-10-10-10---|--x--x--x--x--x--x--x--x----|--x--x--x--x--x--x--x--x----|--8--8--8--8--8--8--8--8----|--8--8--8--8--8--8--8--8----|----------------------------|----------------------------|
----------------------------|----------------------------|----------------------------|----------------------------|--9--9--9--9--9--9--9--9----|--9--9--9--9--9--9--9--9----|--x--x--x--x--x--x--x--x----|--x--x--x--x--x--x--x--x----|--7--7--7--7--7--7--7--7----|--7--7--7--7--7--7--7--7----|----------------------------|----------------------------|
----------------------------|----------------------------|----------------------------|----------------------------|--8--8--8--8--8--8--8--8----|--8--8--8--8--8--8--8--8----|--x--x--x--x--x--x--x--x----|--x--x--x--x--x--x--x--x----|--6--6--6--6--6--6--6--6----|--6--6--6--6--6--6--6--6----|----------------------------|----------------------------|
----------------------------|----------------------------|----------------------------|----------------------------|--12-12-12-12-12-12-12-12---|--12-12-12-12-12-12-12-12---|--x--x--x--x--x--x--x--x----|--x--x--x--x--x--x--x--x----|--10-10-10-10-10-10-10-10---|--10-10-10-10-10-10-10-10---|----------------------------|----------------------------|
----------------------------|----------------------------|----------------------------|----------------------------|--15-15-15-15-15-15-15-15---|--15-15-15-15-15-15-15-15---|--x--x--x--x--x--x--x--x----|--x--x--x--x--x--x--x--x----|--13-13-13-13-13-13-13-13---|--13-13-13-13-13-13-13-13---|----------------------------|----------------------------|
----------------------------|----------------------------|----------------------------|----------------------------|--9--9--9--9--9--9--9--9----|--9--9--9--9--9--9--9--9----|--x--x--x--x--x--x--x--x----|--x--x--x--x--x--x--x--x----|--7--7--7--7--7--7--7--7----|--7--7--7--7--7--7--7--7----|----------------------------|----------------------------|
----------------------------|----------------------------|----------------------------|----------------------------|--13-13-13-13-13-13-13-13---|--13-13-13-13-13-13-13-13---|--x--x--x--x--x--x--x--x----|--x--x--x--x--x--x--x--x----|--11-11-11-11-11-11-11-11---|--11-11-11-11-11-11-11-11---|----------------------------|----------------------------|
----------------------------|----------------------------|----------------------------|----------------------------|-----5--7-----5--7-----5----|--7-----5--7-----7-----5----|--8--------8--------8-------|-----8--------8-----8-------|----------------------------|----------------------------|----------------------------|----------------------------|
----------------------------|----------------------------|----------------------------|----------------------------|-----5--7-----5--7-----5----|--7-----5--7-----7-----5----|--8--------8--------8-------|-----8--------8-----8-------|----------------------------|----------------------------|----------------------------|----------------------------|
----------------------------|----------------------------|----------------------------|----------------------------|-----5--7-----5--7-----5----|--7-----5--7-----7-----5----|--8--------8--------8-------|-----8--------8-----8-------|----------------------------|----------------------------|----------------------------|----------------------------|
----------------------------|----------------------------|----------------------------|----------------------------|-----5--7-----5--7-----5----|--7-----5--7-----7-----5----|--8--------8--------8-------|-----8--------8-----8-------|----------------------------|----------------------------|----------------------------|----------------------------|
----------------------------|----------------------------|----------------------------|----------------------------|-----5--7-----5--7-----5----|--7-----5--7-----7-----5----|--8--------8--------8-------|-----8--------8-----8-------|----------------------------|----------------------------|----------------------------|----------------------------|
----------------------------|----------------------------|----------------------------|----------------------------|-----5--7-----5--7-----5----|--7-----5--7-----7-----5----|--8--------8--------8-------|-----8--------8-----8-------|----------------------------|----------------------------|----------------------------|----------------------------|
----------------------------|----------------------------|----------------------------|----------------------------|-----5--7-----5--7-----5----|--7-----5--7-----7-----5----|--8--------8--------8-------|-----8--------8-----8-------|----------------------------|----------------------------|----------------------------|----------------------------|
----------------------------|----------------------------|-------|-------|----------------------------|----------------------------|-------|-------|-----5--7-----5--7-----5----|--7-----5--7-----7-----5----|-------|-------|--8--------8--------8-------|-----8--------8-----8-------|--5L---|--5L---|----------------------------|----------------------------|--5L---|--5L---|----------------------------|----------------------------|--5L---|--5L---|
-------|-------||-------|-------||-------|-------||--5L---|--5----||--5L---|--5----||--5L---|--5----||
Tap to rate this tab
 
# A B C D E F G H I J K L M N O P Q R S T U V W X Y Z