Disturbed - The Animal tab version 3

Title: The Animal
Artist: Disturbed
Album: Asylum
Tabber: Steve Miller
Tempo = 97
Dan Lead Guitar

Legend
L - tied note
x - dead note
h - hammer on/pull off
b - bend
s - slide
~ - vibrato
g - ghost note
> - accentuated note
t - trill
M - palm mute
. - staccato
P - popping (bass)
S - slapping (bass)
+ - tapping
W - wide vibrato
< - fade in
w - whammy bar
= - tremolo picking
v - brush up
^ - brush down
V - pick stroke up
n - pick stroke down


D#|----------------------------------------------------|A#|----------------------------------------------------|F#|----------------------------------------------------|C#|----------------------------------------------------|G#|--2M----2M-------2M----2M-2M-2M-2M-------2M----2M---|D#|--0M----0M-------0M----0M-0M-0M-0M-------0M----0M---|
----------------------------------------------------|----------------------------------------------------|----------------------------------------------------|----------------------------------------------------|--1M----1M-------1M----1M-5M----5M-------0M----0M---|--0M----0M-------0M----0M-0M----0M-------0M----0M---|
----------------------------------------------------|----------------------------------------------------|----------------------------------------------------|----------------------------------------------------|--2M----2M-------2M----2M-2M-2M-2M-------2M----2M---|--0M----0M-------0M----0M-0M-0M-0M-------0M----0M---|
----------------------------------------------------|----------------------------------------------------|----------------------------------------------------|----------------------------------------------------|--1M----1M-------1M----1M-5M----5M------------------|--0M----0M-------0M----0M-0M----0M------------------|
----------------------------------------------------|--12-12-12-12-12-12-12-12-12-12-12-12-12-12-12-12---|----------------------------------------------------|----------------------------------------------------|----------------------------------------------------|----------------------------------------------------|
----------------------------------------------------|--11-11-11-11-11-11-11-11-7--7--7--7--7--7--7--7----|----------------------------------------------------|----------------------------------------------------|----------------------------------------------------|----------------------------------------------------|
----------------------------------------------------|----------------------------------------------------|----------------------------------------------------|--9--9--9--9--9--9--9--9--9--9--9--9--9--9--9--9----|----------------------------------------------------|----------------------------------------------------|
----------------------------------------------------|-------|-------|----------------------------------------------------|-------|-------|----------------------------------------------------|-------|-------|--8--8--8--8--8--8--8--8----------------------------|-------|-------|--------------------------9--9--9--9--9--9--9--9----|--7L---|--7----|----------------------------------------------------|-------|-------|
----------------------------------------------------|----------------------------------------------------|----------------------------------------------------|----------------------------------------------------|----------------------------------------------------|--0M----0M----x--0M-x--0M-0M-0M-0M----x--0M-x--0M---|
----------------------------------------------------|----------------------------------------------------|----------------------------------------------------|----------------------------------------------------|----------------------------------------------------|--0M----0M----x--0M-x--0M-0M----0M----x--0M-x--0M---|
----------------------------------------------------|----------------------------------------------------|----------------------------------------------------|----------------------------------------------------|--2-----2--------2-----2--2--2--2--------2-----2----|--0-----0--------0-----0--0--0--0--------0-----0----|
----------------------------------------------------|----------------------------------------------------|----------------------------------------------------|----------------------------------------------------|--1-----1--------1-----1--5-----5--------5-----8----|--0-----0--------0-----0--0-----0--------0-----0----|
----------------------------------------------------|----------------------------------------------------|----------------------------------------------------|----------------------------------------------------|--2-----2--------2-----2--2--2--2--------2-----2----|--0-----0--------0-----0--0--0--0--------0-----0----|
----------------------------------------------------|----------------------------------------------------|----------------------------------------------------|----------------------------------------------------|--1-----1--------1-----1--5-----5--------5-----8----|--0-----0--------0-----0--0-----0--------0-----0----|
----------------------------------------------------|----------------------------------------------------|----------------------------------------------------|----------------------------------------------------|--9--------9--x--x--8--------8--x--x--9-----9--9----|--7--------7--x--x--7--------7--x--x--7-----7--7----|
----------------------------------------------------|----------------------------------------------------|----------------------------------------------------|----------------------------------------------------|--x--x--10----10-10-x--x--7--------7--7--10-9--7----|--x--x--8-----8--8--x--x--5--------5--5--7--7--5----|
----------------------------------------------------|----------------------------------------------------|----------------------------------------------------|----------------------------------------------------|--9--------9--x--x--8--------8--x--x--9-----9--9----|--7--------7--x--x--7--------7--x--x--7-----7--7----|
----------------------------------------------------|-------|----------------------------------------------------|-------|----------------------------------------------------|-------|----------------------------------------------------|-------|--x--x--10----10-10-x--x--12-------12-x--x--15------|-------|--x--x--8-----8--8--x--x--10-------10-x--x--13------|-------|
----------------------------------------------------|----------------------------------------------------|----------------------------------------------------|----------------------------------------------------|--2--2-----2--2-----2--2--2-----2--2--2--2--2--2----|--0--0-----0--0-----0--0--0-----0--0--0--0--0--0----|
----------------------------|----------------------------|----------------------------|----------------------------|----------------------------|----------------------------|----------------------------|--7--------5--------7-------|--5--------4--------5-------|--4--------4--------4-------|--3--------3--------3-------|----------------------------|
----------------------------------------------------|----------------------------------------------------|----------------------------------------------------|--5--5-----5-----5--5--5--------------2--------3----|--3--3-----3-----3--3--3-----0--2--3-----3--5-------|----------------------------------------------------|
----------------------------------------------------|----------------------------------------------------|----------------------------------------------------|----------------------------------------------------|--2--2-----2--2-----2--2--2-----2--2--2--2--2--2----|--0--0-----0--0-----0--0--0-----0--0--0--0--0--0----|
----------------------------|----------------------------|----------------------------|----------------------------|--5--------4--------5-------|--3--------3--------3-------|
----------------------------------------------------|----------------------------------------------------|----------------------------------------------------|----------------------------------------------------|--7-----------------7-----------0M-0M-0M-0M-0M-0M---|--5-----------------5-------------------------------|
----------------------------------------------------|----------------------------------------------------|----------------------------------------------------|--5-----------------4-----------------4-------------|--3-----------------2-----------------2-------------|-----0M----0M----0M----0M----0M----0M----0M----0M---|
----------------------------------------------------|--12-12-12-12-12-12-12-12-12-12-12-12-12-12-12-12---|----------------------------------------------------|----------------------------------------------------|----------------------------------------------------|----------------------------------------------------|
----------------------------------------------------|--11-11-11-11-11-11-11-11-7--7--7--7--7--7--7--7----|----------------------------------------------------|----------------------------------------------------|----------------------------------------------------|----------------------------------------------------|
----------------------------------------------------|----------------------------------------------------|----------------------------------------------------|--9--9--9--9--9--9--9--9--9--9--9--9--9--9--9--9----|----------------------------------------------------|----------------------------------------------------|
----------------------------------------------------|-------|-------|----------------------------------------------------|-------|-------|----------------------------------------------------|-------|-------|--8--8--8--8--8--8--8--8----------------------------|-------|-------|--------------------------9--9--9--9--9--9--9--9----|--7L---|--7----|----------------------------------------------------|-------|-------|
----------------------------------------------------|----------------------------------------------------|----------------------------------------------------|----------------------------------------------------|----------------------------------------------------|--0M----0M----x--0M-x--0M-0M-0M-0M----x--0M-x--0M---|
----------------------------------------------------|----------------------------------------------------|----------------------------------------------------|----------------------------------------------------|----------------------------------------------------|--0M----0M----x--0M-x--0M-0M----0M----x--0M-x--0M---|
----------------------------------------------------|----------------------------------------------------|----------------------------------------------------|----------------------------------------------------|--2-----2--------2-----2--2--2--2--------2-----2----|--0-----0--------0-----0--0--0--0--------0-----0----|
----------------------------------------------------|----------------------------------------------------|----------------------------------------------------|----------------------------------------------------|--1-----1--------1-----1--5-----5--------5-----8----|--0-----0--------0-----0--0-----0--------0-----0----|
----------------------------------------------------|----------------------------------------------------|----------------------------------------------------|----------------------------------------------------|--2-----2--------2-----2--2--2--2--------2-----2----|--0-----0--------0-----0--0--0--0--------0-----0----|
----------------------------------------------------|----------------------------------------------------|----------------------------------------------------|----------------------------------------------------|--1-----1--------1-----1--5-----5--------5-----8----|--0-----0--------0-----0--0-----0--------0-----0----|
----------------------------------------------------|----------------------------------------------------|----------------------------------------------------|----------------------------------------------------|--9--------9--x--x--8--------8--x--x--9-----9--9----|--7--------7--x--x--7--------7--x--x--7-----7--7----|
----------------------------------------------------|----------------------------------------------------|----------------------------------------------------|----------------------------------------------------|--x--x--10----10-10-x--x--7--------7--7--10-9--7----|--x--x--8-----8--8--x--x--5--------5--5--7--7--5----|
----------------------------------------------------|----------------------------------------------------|----------------------------------------------------|----------------------------------------------------|--9--------9--x--x--8--------8--x--x--9-----9--9----|--7--------7--x--x--7--------7--x--x--7-----7--7----|
----------------------------------------------------|-------|----------------------------------------------------|-------|----------------------------------------------------|-------|----------------------------------------------------|-------|--x--x--10----10-10-x--x--12-------12-x--x--15------|-------|--x--x--8-----8--8--x--x--10-------10-x--x--13------|-------|
----------------------------------------------------|----------------------------------------------------|----------------------------------------------------|----------------------------------------------------|--2--2-----2--2-----2--2--2-----2--2--2--2--2--2----|--0--0-----0--0-----0--0--0-----0--0--0--0--0--0----|
----------------------------|----------------------------|----------------------------|----------------------------|----------------------------|----------------------------|----------------------------|--7--------5--------7-------|--5--------4--------5-------|--4--------4--------4-------|--3--------3--------3-------|----------------------------|
----------------------------------------------------|----------------------------------------------------|----------------------------------------------------|--5--5-----5-----5--5--5--------------2--------3----|--3--3-----3-----3--3--3-----0--2--3-----3--5-------|----------------------------------------------------|
----------------------------------------------------|----------------------------------------------------|----------------------------------------------------|----------------------------------------------------|--2--2-----2--2-----2--2--2-----2--2--2--2--2--2----|--0--0-----0--0-----0--0--0-----0--0--0--0--0--0----|
----------------------------|----------------------------|----------------------------|----------------------------|--5--------4--------5-------|--3--------3--------3-------|
----------------------------------------------------|----------------------------------------------------|----------------------------------------------------|----------------------------------------------------|--7-----------------7-----------0M-0M-0M-0M-0M-0M---|--5-----------------5-------------------------------|
----------------------------------------------------|----------------------------------------------------|----------------------------------------------------|--5-----------------4-----------------4-------------|--3-----------------2-----------------2-------------|-----0M----0M----0M----0M----0M----0M----0M----0M---|
----------------------------------------------------|--------------------------15h16h15------------------|--------16h17h16----16h17----------17-16h17h16------|-----17----------17----------------------------17---|--19------------------------------------------------|----------------------------------------------------|
--------------------------------------15h14---------|-----------17----19-------------------------17h16---|--16h17h16----16----16-16-17h16---------------------|--------------------------------17h16---------------|----------------------------------------------------|----------------------------------------------------|
----------------------------------------------------|--------------------------15h16h15------------------|--------16h17h16----16h17----------17-16h17h16------|-----17----------17----------------------------17---|--19------------------------------------------------|----------------------------------------------------|
----------------------------------------------------|-----------17----19---------------------------------|--16h17h16----16----16-16-17h16---------------------|--------------------------------17h16-19h17h16------|-----------------------------------------------17---|----------------------------------------------------|
----------------------------------------------------|--------------------------15h16h15------------------|--------16h17h16----16h17----------17-16h17h16------|-----17----------17----------------------------17---|--19------------------------------------------------|----------------------------------------------------|
--------------------------------------15h14---------|-----------17----19-------------------------17h16---|--16h17h16----16----16-16-17h16---------------------|--------------------------------17h16---------------|----------------------------------------------------|----------------------------------------------------|
--------------22L------22~------17----17L---17b15---|-------|-------|--17------------------------------------------------|--17L--|--17~--|----------------------------------------------------|-------|-------|----------------------------------------------------|-------|-------|----------------------------------------------------|-------|-------|----------------------------------------------------|-------|-------|
----------------------------------------------------|----------------------------------------------------|----------------------------------------------------|--9--------------12----9-----10-9-------------------|--7--------------10----7-----8--7-----------5--7----|--------0M-0M-0M----0M----0M-------0M-0M-0M-3--5----|
----------------------------------------------------|----------------------------------------------------|----------------------------------------------------|----------------------------------------------------|--9--------10-------9-------------------------------|--7--0M-0M-8--0M-0M-7--0M-8M-7M-0M-7M-5M-0M-5M-3M---|
----------------------------------------------------|----------------------------------------------------|----------------------------------------------------|--9--------------12----9-----10-9-------------------|--7--------------10----7-----8--7-----------5--7----|--------0M-0M-0M----0M----0M-------0M-0M-0M-3--5----|
----------------------------------------------------|----------------------------------------------------|----------------------------------------------------|----------------------------------------------------|--9--------10-------9-------------------------------|--7--0M-0M-8--0M-0M-7--0M-0M-5--3--0--5--6--5--3----|
----------------------------------------------------|----------------------------------------------------|----------------------------------------------------|--4--------4--x--x--4--------4----------------------|--2--------2--x--x--2--------2--x--x--4--4--4--4----|--------------------------------x--x--2--2--2--2----|
----------------------------------------------------|----------------------------------------------------|----------------------------------------------------|----------------------------------------------------|--2--2-----2--2-----2--2--2-----2--2--2--2--2--2----|--0--0-----0--0-----0--0--0-----0--0--0--0--0--0----|
----------------------------|----------------------------|----------------------------|----------------------------|----------------------------|----------------------------|----------------------------|--7--------5--------7-------|--5--------4--------5-------|--4--------4--------4-------|--3--------3--------3-------|----------------------------|
----------------------------------------------------|----------------------------------------------------|----------------------------------------------------|--5--5-----5-----5--5--5--------------2--------3----|--3--3-----3-----3--3--3-----0--2--3-----3--5-------|----------------------------------------------------|
----------------------------------------------------|----------------------------------------------------|----------------------------------------------------|----------------------------------------------------|--2--2-----2--2-----2--2--2-----2--2--2--2--2--2----|--0--0-----0--0-----0--0--0-----0--0--0--0--0--0----|
----------------------------|----------------------------|----------------------------|----------------------------|--5--------4--------5-------|--3--------3--------3-------|
----------------------------------------------------|----------------------------------------------------|----------------------------------------------------|-----------------------------------------2--2--2----|--7-----------------7-----------0M-0M-0--0--0--0----|--5-----------------5-------------------------------|
----------------------------------------------------|----------------------------------------------------|----------------------------------------------------|--5-----------------4-----------------4-------------|--3-----------------2-----------------2-------------|-----0M----0M----0M----0M----0M----0M----0M----0M---|
--5-----------7-----0-----5--------7--------0-------|----------------------------------------------------|----------------------------------------------------|----------------------------------------------------|----------------------------------------------------|----------------------------------------------------|
--5-----------7-----0-----5--------7--------0-------|----------------------------------------------------|----------------------------------------------------|----------------------------------------------------|----------------------------------------------------|----------------------------------------------------|
--5-----7--0--12~-----------|----------------------------|----------------------------|----------------------------|----------------------------|----------------------------|
--7--------10-------------7-----10----------7-------|--------------------10----------------10------------|----------------------------------------------------|----------------------------------------------------|----------------------------------------------------|----------------------------------------------------|
--5-----------7-----0-----5--------7--------0-------|----------------------------------------------------|----------------------------------------------------|----------------------------------------------------|----------------------------------------------------|----------------------------------------------------|
--5-----------7-----0-----5--------7--------0-------|----------------------------------------------------|----------------------------------------------------|----------------------------------------------------|----------------------------------------------------|----------------------------------------------------|
--5--------7--------5-------|--3--------2----------------|----------------------------|--------------------3-------|----------------------------|----------------------------|----------------------------|----------------------------|----------------------------|----------------------------|----------------------------|----------------------------|
----------------------------------------------------|--12-12-12-12-12-12-12-12-12-12-12-12-12-12-12-12---|----------------------------------------------------|----------------------------------------------------|----------------------------------------------------|----------------------------------------------------|
----------------------------------------------------|--11-11-11-11-11-11-11-11-7--7--7--7--7--7--7--7----|----------------------------------------------------|----------------------------------------------------|----------------------------------------------------|----------------------------------------------------|
----------------------------------------------------|----------------------------------------------------|----------------------------------------------------|--9--9--9--9--9--9--9--9--9--9--9--9--9--9--9--9----|----------------------------------------------------|----------------------------------------------------|
----------------------------------------------------|-------|-------||----------------------------------------------------|-------|-------||----------------------------------------------------|-------|-------||--8--8--8--8--8--8--8--8----------------------------|-------|-------||--------------------------9--9--9--9--9--9--9--9----|--7L---|--7----||----------------------------------------------------|-------|-------||
Tap to rate this tab
 
# A B C D E F G H I J K L M N O P Q R S T U V W X Y Z