Disturbed - 3 tab

Title: 3
Artist: Disturbed
Tabber: dansbigfanguitarist
Tempo = 84

TUNING: DROPPED C (C-G-C-F-A-D low to high)

INTRO

----------------------------------------------------|----------------------------------------------------|----------------------------------------------------|----------------------------------------------------|-----------3--5-----------5--6-----------6--6--8----|--1--0--0--------0--3--0--------0--6--0-------------|
----------------------------------------------------|----------------------------------------------------|----------------------------------------------------|----------------------------------------------------|-----------3--5--------6-----------6--------3--3----|--1--0--0--------0--0-----0--0--0-----0--0----------|
----------------------------------------------------|----------------------------------------------------|----------------------------------------------------|----------------------------------------------------|-----------3--5-----------5--6-----------6--6--8----|--1--0--0--------0--3--0--------0--6--0-------------|
----------------------------|----------------------------|----------------------------|--8--8--8--5--5--5--8-------|--6--6--6--3--3--3--6-------|----------------------------|
----------------------------------------------------|----------------------------------------------------|----------------------------------------------------|-----------5--7-----------7--8-----------8--8--10---|--1--------3--5-----3-----5--6-----6-----6--6--8----|--1--0--0--------0--3--0--------0--6--0-------------|
----------------------------------------------------|----------------------------------------------------|----------------------------------------------------|-----------5--7--------8-----------8--------5--5----|--1--------3--5--------6-----------6--------3--3----|--1--0--0--------0--0-----0--0--0-----0--0----------|
----------------------------------------------------|----------------------------------------------------|----------------------------------------------------|-----------5--7-----------7--8-----------8--8--10---|--1--------3--5-----3-----5--6-----6-----6--6--8----|--1--0--0--------0--3--0--------0--6--0-------------|
----------------------------|----------------------------|----------------------------|--8--8--8--5--5--5--8--8----|--6--6--6--3--3--3--6--6----|----------------------------|
----------------------------------------------------|----------------------------------------------------|----------------------------------------------------|-----------5--7-----------7--8-----------8--8--10---|--1--------3--5-----3-----5--6-----6-----6--6--8----|--1--0--0--------0--3--0--------0--6--0-------------|
----------------------------------------------------|----------------------------------------------------|----------------------------------------------------|-----------5--7--------8-----------8--------5--5----|--1--------3--5--------6-----------6--------3--3----|--1--0--0--------0--0-----0--0--0-----0--0----------|
----------------------------------------------------|----------------------------------------------------|----------------------------------------------------|-----------5--7-----------7--8-----------8--8--10---|--1--------3--5-----3-----5--6-----6-----6--6--8----|--1--0--0--------0--3--0--------0--6--0-------------|
----------------------------|----------------------------|----------------------------|--8--8--8--5--5--5--8-------|--6--6--6--3--3--3--6-------|----------------------------|
----------------------------------------------------|----------------------------------------------------|----------------------------------------------------|----------------------------------------------------|----------------------------------------------------|--7--8--0-----0-----7--8--0-----7--8--7--8--0-------|
VERSE
----------------------------------------------------|----------------------------------------------------|----------------------------------------------------|----------------------------------------------------|----------------------------------------------------|--7--8--0-----0-----7--8--0-----7--8--7--8--0-------|
----------------------------------------------------|----------------------------------------------------|----------------------------------------------------|----------------------------------------------------|-----------8--------4--------5--------7-----8--8----|--7--8--0-----0--0-----0--0-----0--0-----0----------|
----------------------------------------------------|----------------------------------------------------|----------------------------------------------------|----------------------------------------------------|----------------------------------------------------|--7--8--0-----0-----7--8--0-----7--8--7--8--0-------|
----------------------------------------------------|----------------------------------------------------|----------------------------------------------------|----------------------------------------------------|-----------8--------4--------5--------7-----4--4----|--7--8--0-----0--0-----0--0-----0--0-----0----------|
----------------------------------------------------|----------------------------------------------------|----------------------------------------------------|----------------------------------------------------|----------------------------------------------------|--7--8--0-----0-----7--8--0-----7--8--7--8--0-------|
----------------------------------------------------|----------------------------------------------------|----------------------------------------------------|----------------------------------------------------|-----------8--------4--------5--------7-----8--8----|--7--8--0-----0--0-----0--0-----0--0-----0----------|
----------------------------------------------------|----------------------------------------------------|----------------------------------------------------|----------------------------------------------------|----------------------------------------------------|--7--8--0-----0-----7--8--0-----7--8--7--8--0-------|
----------------------------------------------------|----------------------------------------------------|----------------------------------------------------|----------------------------------------------------|-----------8--------4--------5--------7-----4--4----|--7--8--0-----0--0-----0--0-----0--0-----0----------|
PRE-CHORUS
----------------------------------------------------|----------------------------------------------------|----------------------------------------------------|----------------------------------------------------|--5--5--5--5--5--5--5--5--5--5--5--5--5--5--5--5----|--5--5--5--5--5--5--5--5--5--5--5--5--5--5--5--5----|
----------------------------------------------------|----------------------------------------------------|----------------------------------------------------|----------------------------------------------------|--7--7--7--7--7--7--7--7--3--3--3--3--3-----1-------|--7--7--7--7--7--7--7--7--3--3--3--3--3-----1-------|
CHORUS
----------------------------------------------------|----------------------------------------------------|----------------------------------------------------|-----------10-------9-----------------9--8----------|--0--------8--------7--------8--------7--6-----7----|--0--------------------------8-----------------7----|
----------------------------------------------------|----------------------------------------------------|----------------------------------------------------|-----8--------7-------------------------------------|-----6--------5-----6-----3--------5--------8-------|--------------------6-----3--------5--------8-------|
----------------------------------------------------|----------------------------------------------------|----------------------------------------------------|-----------10-------9-----------------9--8----------|--0--------8--------7--------8--------7--6-----7----|--0--------------------------8-----------------7----|
----------------------------------------------------|----------------------------------------------------|----------------------------------------------------|-----8--------7-------------------------------------|-----6--------5-----6-----3--------5--------3-------|--------------------6-----3--------5--------3-------|
----------------------------------------------------|----------------------------------------------------|----------------------------------------------------|-----------10-------9-----------------9--8----------|--0--------8--------7--------8--------7--6-----7----|--0--------------------------8-----------------7----|
----------------------------------------------------|----------------------------------------------------|----------------------------------------------------|-----8--------7-------------------------------------|-----6--------5-----6-----3--------5--------8-------|--------------------6-----3--------5--------8-------|
----------------------------------------------------|----------------------------------------------------|----------------------------------------------------|----------------------------------------------------|-----------8--------8--------8--------8-----8-------|--7--7--7-----7--7-----7--7-----7--7-----7-----7----|
MAIN RIFF
----------------------------------------------------|----------------------------------------------------|----------------------------------------------------|----------------------------------------------------|-----------3--5-----------5--6-----------6--6--8----|--1--0--0--------0--3--0--------0--6--0-------------|
----------------------------------------------------|----------------------------------------------------|----------------------------------------------------|----------------------------------------------------|-----------3--5--------6-----------6--------3--3----|--1--0--0--------0--0-----0--0--0-----0--0----------|
----------------------------------------------------|----------------------------------------------------|----------------------------------------------------|----------------------------------------------------|-----------3--5-----------5--6-----------6--6--8----|--1--0--0--------0--3--0--------0--6--0-------------|
----------------------------|----------------------------|----------------------------|--8--8--8--5--5--5--8-------|--6--6--6--3--3--3--6-------|----------------------------|
----------------------------------------------------|----------------------------------------------------|----------------------------------------------------|----------------------------------------------------|----------------------------------------------------|--7--8--0-----0-----7--8--0-----7--8--7--7--7--7----|
VERSE
----------------------------------------------------|----------------------------------------------------|----------------------------------------------------|----------------------------------------------------|----------------------------------------------------|--7--8--0-----0-----7--8--0-----7--8--7--8--0-------|
----------------------------------------------------|----------------------------------------------------|----------------------------------------------------|----------------------------------------------------|-----------8--------4--------5--------7-----8--8----|--7--8--0-----0--0-----0--0-----0--0-----0----------|
----------------------------------------------------|----------------------------------------------------|----------------------------------------------------|----------------------------------------------------|----------------------------------------------------|--7--8--0-----0-----7--8--0-----7--8--7--8--0-------|
----------------------------------------------------|----------------------------------------------------|----------------------------------------------------|----------------------------------------------------|-----------8--------4--------5--------7-----4--4----|--7--8--0-----0--0-----0--0-----0--0-----0----------|
----------------------------------------------------|----------------------------------------------------|----------------------------------------------------|----------------------------------------------------|----------------------------------------------------|--7--8--0-----0-----7--8--0-----7--8--7--8--0-------|
----------------------------------------------------|----------------------------------------------------|----------------------------------------------------|----------------------------------------------------|-----------8--------4--------5--------7-----8--8----|--7--8--0-----0--0-----0--0-----0--0-----0----------|
----------------------------------------------------|----------------------------------------------------|----------------------------------------------------|----------------------------------------------------|----------------------------------------------------|--7--8--0-----0-----7--8--0-----7--8--7--8--0-------|
----------------------------------------------------|----------------------------------------------------|----------------------------------------------------|----------------------------------------------------|-----------8--------4--------5--------7-----4--4----|--7--8--0-----0--0-----0--0-----0--0-----0----------|
PRE-CHORUS
----------------------------------------------------|----------------------------------------------------|----------------------------------------------------|----------------------------------------------------|--5--5--5--5--5--5--5--5--5--5--5--5--5--5--5--5----|--5--5--5--5--5--5--5--5--5--5--5--5--5--5--5--5----|
----------------------------------------------------|----------------------------------------------------|----------------------------------------------------|----------------------------------------------------|--7--7--7--7--7--7--7--7--3--3--3--3--3-----1-------|--7--7--7--7--7--7--7--7--3--3--3--3--3-----1-------|
CHORUS
----------------------------------------------------|----------------------------------------------------|----------------------------------------------------|-----------10-------9-----------------9--8----------|--0--------8--------7--------8--------7--6-----7----|--0--------------------------8-----------------7----|
----------------------------------------------------|----------------------------------------------------|----------------------------------------------------|-----8--------7-------------------------------------|-----6--------5-----6-----3--------5--------8-------|--------------------6-----3--------5--------8-------|
----------------------------------------------------|----------------------------------------------------|----------------------------------------------------|-----------10-------9-----------------9--8----------|--0--------8--------7--------8--------7--6-----7----|--0--------------------------8-----------------7----|
----------------------------------------------------|----------------------------------------------------|----------------------------------------------------|-----8--------7-------------------------------------|-----6--------5-----6-----3--------5--------3-------|--------------------6-----3--------5--------3-------|
----------------------------------------------------|----------------------------------------------------|----------------------------------------------------|-----------10-------9-----------------9--8----------|--0--------8--------7--------8--------7--6-----7----|--0--------------------------8-----------------7----|
----------------------------------------------------|----------------------------------------------------|----------------------------------------------------|-----8--------7-------------------------------------|-----6--------5-----6-----3--------5--------8-------|--------------------6-----3--------5--------8-------|
----------------------------------------------------|----------------------------------------------------|----------------------------------------------------|----------------------------------------------------|-----------8--------8--------8--------8-----8-------|--7--7--7-----7--7-----7--7-----7--7-----7-----7----|
GUITAR SOLO
----------------------------------------------------|----------------------------------------------------|----------------------------------------------------|----------------------------------------------------|--7--7--7--7--7--7--7--7--7--7--7--7--8--8--8--8----|--7--7--7--7--7--7--7--7--7--7--7--7--8--8--8--8----|
----------------------------------------------------|----------------------------------------------------|----------------------------------------------------|----------------------------------------------------|--5--5--5--5--5--5--5--5--5--5--5--5--5--5--5--5----|--5--5--5--5--5--5--5--5--5--5--5--5--5--5--5--5----|
----------------------------------------------------|----------------------------------------------------|----------------------------------------------------|----------------------------------------------------|--7--7--7--7--7--7--7--7--7--7--7--7--7--7--7--7----|--7--7--7--7--7--7--7--7--7--7--7--7--7--7--7--7----|
----------------------------------------------------|----------------------------------------------------|----------------------------------------------------|----------------------------------------------------|--8--8--8--8--8--8--8--7-----7-----7-----7--7--7----|--8--8--8--8--8--8--8--7-----7-----7-----7--7--7----|
----------------------------------------------------|----------------------------------------------------|----------------------------------------------------|----------------------------------------------------|--7--7--7--7--7--7--7--7--7--7--7--7--8--8--8--8----|--7--7--7--7--7--7--7--7--7--7--7--7--8--8--8--8----|
----------------------------------------------------|----------------------------------------------------|----------------------------------------------------|----------------------------------------------------|--5--5--5--5--5--5--5--5--5--5--5--5--5--5--5--5----|--5--5--5--5--5--5--5--5--5--5--5--5--5--5--5--5----|
----------------------------------------------------|----------------------------------------------------|----------------------------------------------------|----------------------------------------------------|--7--7--7--7--7--7--7--7--7--7--7--7--7--7--7--7----|--7--7--7--7--7--7--7--7--7--7--7--7--7--7--7--7----|
----------------------------------------------------|----------------------------------------------------|----------------------------------------------------|----------------------------------------------------|--5--5--5--5--5--5--5--5--3--3--3--3--3--1--0--1----|--5--5--5--5--5--5--5--5--3--3--3--3--3--1--0--1----|
CHORUS
----------------------------------------------------|----------------------------------------------------|----------------------------------------------------|-----------10-------9-----------------9--8----------|--0--------8--------7--------8--------7--6-----7----|--0--------------------------8-----------------7----|
----------------------------------------------------|----------------------------------------------------|----------------------------------------------------|-----8--------7-------------------------------------|-----6--------5-----6-----3--------5--------8-------|--------------------6-----3--------5--------8-------|
----------------------------------------------------|----------------------------------------------------|----------------------------------------------------|-----------10-------9-----------------9--8----------|--0--------8--------7--------8--------7--6-----7----|--0--------------------------8-----------------7----|
----------------------------------------------------|----------------------------------------------------|----------------------------------------------------|-----8--------7-------------------------------------|-----6--------5-----6-----3--------5--------3-------|--------------------6-----3--------5--------3-------|
----------------------------------------------------|----------------------------------------------------|----------------------------------------------------|-----------10-------9-----------------9--8----------|--0--------8--------7--------8--------7--6-----7----|--0--------------------------8-----------------7----|
----------------------------------------------------|----------------------------------------------------|----------------------------------------------------|-----8--------7-------------------------------------|-----6--------5-----6-----3--------5--------8-------|--------------------6-----3--------5--------8-------|
----------------------------------------------------|----------------------------------------------------|----------------------------------------------------|----------------------------------------------------|-----------8--------8--------8--------8-----8-------|--7--7--7-----7--7-----7--7-----7--7-----7-----7----|
----------------------------------------------------|----------------------------------------------------|----------------------------------------------------|-----------10-------9-----------------9--8----------|--0--------8--------7--------8--------7--6-----7----|--0--------------------------8-----------------7----|
----------------------------------------------------|----------------------------------------------------|----------------------------------------------------|-----8--------7-------------------------------------|-----6--------5-----6-----3--------5--------8-------|--------------------6-----3--------5--------8-------|
----------------------------------------------------|----------------------------------------------------|----------------------------------------------------|-----------10-------9-----------------9--8----------|--0--------8--------7--------8--------7--6-----7----|--0--------------------------8-----------------7----|
----------------------------------------------------|----------------------------------------------------|----------------------------------------------------|-----8--------7-------------------------------------|-----6--------5-----6-----3--------5--------3-------|--------------------6-----3--------5--------3-------|
----------------------------------------------------|----------------------------------------------------|----------------------------------------------------|-----------10-------9-----------------9--8----------|--0--------8--------7--------8--------7--6-----7----|--0--------------------------8-----------------7----|
----------------------------------------------------|----------------------------------------------------|----------------------------------------------------|-----8--------7-------------------------------------|-----6--------5-----6-----3--------5--------8-------|--------------------6-----3--------5--------8-------|
----------------------------------------------------|----------------------------------------------------|----------------------------------------------------|----------------------------------------------------|-----------8--------8--------8--------8-----8-------|--7--7--7-----7--7-----7--7-----7--7-----7-----7----|
OUTRO / MAIN RIFF
----------------------------------------------------|----------------------------------------------------|----------------------------------------------------|-----------5--7-----------7--8-----------8--8--10---|--1--------3--5-----3-----5--6-----6-----6--6--8----|--1--0--0--------0--3--0--------0--6--0-------------|
----------------------------------------------------|----------------------------------------------------|----------------------------------------------------|-----------5--7--------8-----------8--------5--5----|--1--------3--5--------6-----------6--------3--3----|--1--0--0--------0--0-----0--0--0-----0--0----------|
----------------------------------------------------|----------------------------------------------------|----------------------------------------------------|-----------5--7-----------7--8-----------8--8--10---|--1--------3--5-----3-----5--6-----6-----6--6--8----|--1--0--0--------0--3--0--------0--6--0-------------|
----------------------------|----------------------------|----------------------------|--8--8--8--5--5--5--8--8----|--6--6--6--3--3--3--6--6----|----------------------------|
----------------------------------------------------|----------------------------------------------------|----------------------------------------------------|-----------5--7-----------7--8-----------8--8--10---|--1--------3--5-----3-----5--6-----6-----6--6--8----|--1--0--0--------0--3--0--------0--6--0-------------|
----------------------------------------------------|----------------------------------------------------|----------------------------------------------------|-----------5--7--------8-----------8--------5--5----|--1--------3--5--------6-----------6--------3--3----|--1--0--0--------0--0-----0--0--0-----0--0----------|
----------------------------------------------------|----------------------------------------------------|----------------------------------------------------|-----------5--7-----------7--8-----------8--8--10---|--1--------3--5-----3-----5--6-----6-----6--6--8----|--1--0--0--------0--3--0--------0--6--0-------------|
----------------------------|----------------------------|----------------------------|--8--8--8--5--5--5--8-------|--6--6--6--3--3--3--6-------|----------------------------|
Tap to rate this tab
 
# A B C D E F G H I J K L M N O P Q R S T U V W X Y Z