Disturbed – Disturbed Rare Songs tab

Band- Disturbed

1.A Welcome Burden
2.Loading The Weapon
3.Glass Shatters
4.Fade To Black(Metallica Cover)
5.Walk(Pantera Cover)
6.God Of The Mind
7.Dehumanized
8.Forsaken

I already tabbed these songs already. Now I'm just going to put them all together.

1.A Welcome Burden

Tuning- Tune down 1/2 step:Drop D

Chorus|---------------------------------------------------------------||---------------------------------------------------------------||---------------------------------------------------------------||-5-6-5-----5-6-5---5-6-5-----6-8-6---5-6-5-----5-6-5---1-3-1-3-||-3-4-3-4-3-3-4-3-4-3-4-3-4-3-4-6-4-6-3-4-3-4-3-3-4-3-4-1-3-1-3-||-------4-3-------4-------4-3-------6-------4-3-------4-1-3-1-3-|
|-----------------------------------------------------------------------||-----------------------------------------------------------------------||-----------------------------------------------------------------------||-5-6-5-----5-6-5---5-6-5-----6-8-6---5-6-5-----5-6-5---1-3-1-3-1-3-1-3-||-3-4-3-4-3-3-4-3-4-3-4-3-4-3-4-6-4-6-3-4-3-4-3-3-4-3-4-1-3-1-3-1-3-1-3-||-------4-3-------4-------4-3-------6-------4-3-------4-1-3-1-3-1-3-1-3-|
Verse|----|--------------------||----|--------------------||-5~-|--------------------||-x~-|-10-13-10--10-13-10-|...Plays open after 14 times.|-3~-|--------------------||----|--------------------|P.M. ..................
Pre-Chorus|------------------||------------------||------------------||-3-6-3-5--3-6-3-5-||-3-6-3-5--3-6-3-5-||-3-6-3-5--3-6-3-5-|
Interlude|------------------------------------||------------------------------------||------------------------------10-13-||-11-10-10--10-11-10--10-11-10-x--x--||-11-10-10--10-11-10--10-11-10-8--11-||-11-10-10--10-11-10--10-11-10-------|
|--------------------------------------||--------------------------------------||--------------------------------------||-11-10-10--10-11-10-10--10-11---------||-11-10-10--10-11-10-10--10-11-x\\-xxx-||-11-10-10--10-11-10-10--10-11-x\\-xxx-|
|-------------------------||-------------------------||-------------------------||-3-3-3-3-3-3-6-6-6-6-6-6-||-3-3-3-3-3-3-6-6-6-6-6-6-||-3-3-3-3-3-3-6-6-6-6-6-6-|
Outro Chorus|-----------------|---------------------||---------x8------|-----x4--------------||-----------------|---------------------||---------6\5-5-5-|-5-6-5-----5-6-5-----||-x-x-x-x-4\3-3-3-|-3-4-3-4-3-3-4-3-4-3-||-x-x-x-x---------|-------4-3-------4-3-|
2.Loading The Weapon Tuning- Tune down 1/2 step:Drop D
Intro/Clean|-------------------------------------------------------------------||-------------------------------------------------------------------||-------------------------------------------------------------------||---8---5------7--5---5---8---5------7--5-------8---5------7--5---5-||-5---5---5--6------6---5---5---5--6----------5---5---5--6------6---||-----------------------------------------5p0-----------------------|
Intro/Continued|--------------------------||--------------------------||--------------------------||--------------------------||---------6-6---6---5--3-3-||-0--5--6-----6---0--------|
|------------------------------------------||------------------------------------------||------------------------------------------||-58885-x-x-57775-5*-x-x-666666-x-x-666666-||-55555-x-x-55555-5*-x-x-666666-x-x-666666-||-55555-x-x-55555-5*-x-x-666666-x-x-666666-|
|---------------------------------------------------------------------------||---------------------------------------------------------------------------||---------------------------------------------------------------------------||-1-1-88-8-7-x-x-3-3--5x5x5-778877-1-1-88-87-3-5x5x5x5-000-1-1-888-7-555555-||-1-1-88-8-7-x-x-3-3--5x5x5-778877-1-1-88-87-3-5x5x5x5-000-1-1-888-7-555555-||-1-1-88-8-7-x-x-3-3--5x5x5-778877-1-1-88-87-3-5x5x5x5-000-1-1-888-7-555555-|P.M. ...
|---6-6-6-6-6------------------------||---------------10-10-10-10-10-10-10-||------------------------------------||-0-----------0----------------------||-0-----------0----------------------||-0-----------0----------------------|
Outro|---------------------||---------------------||---------------------||-0--0-0--0-0--0-0--0-||-0--0-0--0-0--0-0--0-||-0--0-0--0-0--0-0--0-|
3.Glass Shatters Tuning- Standard tuning
Intro|--------------7-----------------3---||--------------7-----------------3---||--------------9-----------------5---||-7-7--7-8-7-7---9--7-7--7-8-7-7---5-||-7-7--7-8-7-7---7--7-7--7-8-7-7---3-||-5-5--5-6-5-5---7--5-5--5-6-5-5---3-|
Verse/Palm Mute|--------------------------||--------------------------||-7-7-7-7-7-7--8-8-8-8-8-8-||-7-7-7-7-7-7--8-8-8-8-8-8-||-5-5-5-5-5-5--6-6-6-6-6-6-||-5-5-5-5-5-5--6-6-6-6-6-6-|
Chorus|-5-5-5-5-5-5-5-5--6-6-6-6-6-6-6-6----------||-5-5-5-5-5-5-5-5--6-6-6-6-6-6-6-6----------||-7-7-7-7-7-7-7-7--8-8-8-8-8-8-8-8----------||-7-7-7-7-7-7-7-7--8-8-8-8-8-8-8-8--7-6-7-6-|...Pick Slide after this|-5-5-5-5-5-5-5-5--6-6-6-6-6-6-6-6--7-6-7-6-||-5-5-5-5-5-5-5-5--6-6-6-6-6-6-6-6--5-4-5-4-|
Post-Chorus|--------------7-----------------3---||--------------7-----------------3---||--------------9-----------------5---||-7-7--7-8-7-7---9--7-7--7-8-7-7---5-||-7-7--7-8-7-7---7--7-7--7-8-7-7---3-||-5-5--5-6-5-5---7--5-5--5-6-5-5---3-|
|--------------7-----------------9-----||--------------7-----------------9-----||--------------9-----------------11----||-7-7--7-8-7-7---9--7-7--7-8-7-7----11-||-7-7--7-8-7-7---7--7-7--7-8-7-7----9--||-5-5--5-6-5-5---7--5-5--5-6-5-5----9--|
4.Fade To Black(Metallica Cover) Tuning- Standard tuning
Intro/Clean|-----------------------------------------------------------------||-----------------------------------------------------------------||-----0---------------0---------------0---------------2-----------||---4---4---4---4---4---4---4---4---4---4---4---4---2---2---2---2-||-2-------2---5---0-------0---5---2-------2---5---4-------4---0---||-----------------------------------------------------------------|
Fill|-----------------------------0-3-||---------------------------------||---------------------1-----1-----||-----0-------2-----2-----2-------||---3-------2---2-2-----2---------||-1-----1-4-----------------------|
Verse|---------0---------------0---------------3-------||-0h1-------------1---1-----------0---3-----------||-2---2-------0h2---0---------0h2-------------2-0-||-2-----2---2-------2---2---2-----------0---0-----||-0-----------------3-----------------------------||-----------------------------------3-------------|
|----------1/3-||----------2/4-||-------0------||---2----------||-----2--------||-0------------|
Bridge/Distortion|----------------------------------------------------||----------------------------------------------------||-2--2-2---------5--5-5---------2--2-2--7-9--9-9-----||-2--2-2---------5--5-5---------2--2-2--7-9--9-9-5-4-||-0--0-0-------5-3--3-3-------5-0--0-0--5-7--7-7-3-2-||--------0-0-3----------0-0-3------------------------|P.M. ....... ....... ...
|---------------------------------------------||---------------------------------------------||-2--2-2---------5--5-5---------2--2-2--------||-2--2-2---------5--5-5---------2--2-2--------||-0--0-0-------5-3--3-3-------5-0--0-0-5-4--2-||--------0-0-3----------0-0-3----------3-2--0-|P.M. ....... ....... ...
Bridge 2(faster)|---------------------------------||---------------------------------||-7/9--9--9--7/9--9-12-11-7--7--7-||-7/9--9--9--7/9--9-12-11-7--7--7-||-5/7--7--7--5/7--7-10--9-5--5--5-||---------------------------------|
|---------------------------||---------------------------||-------------------------4-||-9-9-9-7-7-7-5-5-5-4-4-4---||---------------------------||---------------------------|P.M........................
|---------------------------------||---------------------------------||-7/9--9--9--7/9--9-12-11-7--7--7-||-7/9--9--9--7/9--9-12-11-7--7--7-||-5/7--7--7--5/7--7-10--9-5--5--5-||---------------------------------|
|----------------------------||----------------------------||----------------------------||-9-9-9-7-7-7-5-5-5-4-4-4--5-||----------------------------||----------------------------|P.M.........................
Bridge 3|-------------------------------------------------------------||-------------------------------------------------------------||---------9---------12-11---------7---------------------------||---------9---------12-11---------7-------------------------4-||---------7---------10--9---------5-9-9-9-7-7-7-5-5-5-4-4-4---||-0-0-0-0---0-0-0-0-------0-0-0-0-----------------------------|P.M...... ....... .......
|--------------------------------------------------------------||--------------------------------------------------------------||---------9---------12-11---------7----------------------------||---------9---------12-11---------7----------------------------||---------7---------10--9---------5-9-9-9-7-7-7-5-5-5-4-4-4--5-||-0-0-0-0---0-0-0-0-------0-0-0-0------------------------------|P.M...... ....... .......
Outro|--------------------------------||--------------------------------||-7/9--9--9-7/9--9-12-11-7--7--7-||-7/9--9--9-7/9--9-12-11-7--7--7-||-5/7--7--7-5/7--7-10--9-5--5--5-||--------------------------------|
5.Walk(Pantera Cover) Tuning- Drop D
|-------------------------------------------------------------||-------------2x----------------------------------------------||-------------------------------------------------------------||---------------------------------------------------------x\\-||-----------------------------------------------------x\\-----||-0---0-2-1-0---0-2-1-0---0-2-1-0---0-2-1-0---0-2-1-0---------|
|---------------------------------------------------||---------------------------------------------------||---------------------------------------------------||---------------------------------------------------||---------------8----------------6----------------4-||-0--0-2-1-0--0-8--0--0-2-1-0--0-6--0--0-2-1-0--0-6-|
|-------------------------||-------------------------||--------x3---------------||-------------------------||-------------------------||-0-0-0-1-0-3-0-4-0-3-0-1-|
Verse 1|----------------------------------------------------||-----------x2---------------------------------------||----------------------------------------------------||----------------------------------------------------||------------------------------------------------4-4-||0--0-2-1-0--0-2-1-0--0-2-1-0--0-2-1-0---0-2-1-0-6-6-|
Pre-Chorus|-----------------------------------------------||---------x2------------------------------------||-----------------------------------------------||-----------------------------------------------||-3--6--7---------------------------------------||-5--6--7-0--0-2-1-0--0-2-1-0--0-2-1-0--0-2-1-0-|
|-------------------||-------------------||-------------------||-------------------||-3---6---3---2---1-||-5---6---3---2---1-|
The chorus is the same as the intro. The second verse is the same as the first and the is the same as the first.
SOLO|---------------------------------10----------------------10-------||-12b-13b-10----10-------------------13-10-------------------13-10-||-12b--------13----13-12-10-12-13----------13-12-10-12-13----------||------------------------------------------------------------------||------------------------------------------------------------------||------------------------------------------------------------------|
|----------12b-10-12-----10b-----10-||--------------------13b-----13b----||-13-12-10--------------------------||-----------------------------------||-----------------------------------||-----------------------------------|
|-----10-14-10--10-14-10-14-10----10-------------||-13b--------------------------13----13-10-13-10-||------------------------------------------------||------------------------------------------------||------------------------------------------------||------------------------------------------------|
|-----------------------------------------||----10-----------------------------------||-13----13-12-10----12----10h11--10-11-10-||----------------12----12-----------------||-----------------------------------------||-----------------------------------------|
|--------------------------13--15-||---------------------------------||-11b--10-11b-11--10-11b----------||---------------------------------||---------------------------------||---------------------------------|
|---------6-7-6------------------------------------||-3-------------8-5-6-5----------------------------||-3---------------------7-4-5-4br--5b-5b--3~-5/-5/-||-3-5-3-5------------------------------------------||--------------------------------------------------||--------------------------------------------------|
|-----------------------------------------------||-----------------------------------------------||------12~-----12-------12-------12-------12----||-x-5/-----/12----12-11----11h12----12-11----11-||-----------------------------------------------||-----------------------------------------------|
|------------------------------8------10-------14-------17-||------------------------3/-/7---7/10----10/13----13/16----||-------12----12----12b------------------------------------||-11h12----12----12----------------------------------------||----------------------------------------------------------||----------------------------------------------------------|
|-------20----20----20b-----||-16/19----19----19------\\-||---------------------------||---------------------------||---------------------------||---------------------------|
6.God Of The Mind Tuning- Tune down 1/2 step:Drop D
Chorus/Main Riff|-------------------------------------------------||-------------------------------------------------||-------------------------------------------------||-0-5-0-6-0-5-0-6-7-7-8-8-0-5-0-6-0-5-0-6-7-7-8-8-||-0-5-0-6-0-5-0-6-7-7-8-8-0-5-0-6-0-5-0-6-7-7-8-8-||-0-5-0-6-0-5-0-6-7-7-8-8-0-5-0-6-0-5-0-6-7-7-8-8-|
Verse|-------------------------------------------||-------------------------------------------||-------------------------------------------||-------------------------------------------||-4-5-4-5-4-5-4-5-5-5-7-4-5-4-5-4-5-4-5-5-7-||-------------------------------------------|P.M........................................
Pre-Chorus|-------------------------------------------||-------------------------------------------||-------------------------------------------||-------------------------------------------||-4-5-4-5-4-5-4-5-5-5-7-4-5-4-5-4-5-4-5-5-7-||-------------------------------------------|
Riff 1|------------------||------------------||------------------||-0--7--0--7--0--7-|...Pick Slide after this|-0--7--0--7--0--7-||-0--7--0--7--0--7-|
Bridge|-------------------------||-------------------------||-------------------------||-0-0-0-0-7-0-0-0-0-0-0-7-||-0-0-0-0-7-0-0-0-0-0-0-7-||-0-0-0-0-7-0-0-0-0-0-0-7-|P.M...... ...........
Outro/Palm Mute Throughout|-------------------------------------||-------------------------------------||-------------------------------------||-0-0-0-0-7-7-0-0-0-0-7-7-0-7-0-7-0-7-||-0-0-0-0-7-7-0-0-0-0-7-7-0-7-0-7-0-7-||-0-0-0-0-7-7-0-0-0-0-7-7-0-7-0-7-0-7-|
7.Dehumanized Tuning- Tune down 1/2 step:Drop D
Intro/Verse|---------------------------------------------||-----------------4x--------------------------||---------------------------------------------||---------------------------------------------||------5----------5----------5----------5-----||-0000---000-8888---888-2222---222-7777---777-|P.M... ... .... ... .... ... .... ...
|-------------------------------------------||-------------------------------------------||-------------------------------------------||-------------------------------------------||------5----------5----------5----------5-6-||-0000---000-8888---888-2222---222-7777-----|P.M... ... .... ... .... ... ....
Pre-Chorus|------------------------------------------------------------------------||-----4--------------------4--------------4--------------------4-4-4-4-4-||-----3-------------5*-----3--------------3--------------------3-3-3-3-3-||-000---00-00----5*----000---00-00-00-000---00-00----5*----000---2-2-2-2-||-000---00-00-5*-------000---00-00-00-000---00-00-5*----5*-000-----------||-000---00-00----------000---00-00-00-000---00-00----------000-----------|P.M.. .. .. ... .. .. .. ... .. .. ...
Chorus|-------------------------------------------|-----------------||--------------2x---------------------------|-----------------||------------------------5------------------|-----------------||-0-xxx-0-0000-33xx-333x-5-5/8xx-888x-8-888-|-000-000-000-000-||-0-xxx-0-0000-33xx-333x-3-5/8xx-888x-8-888-|-000-000-000-000-||-0-xxx-0-0000-33xx-333x---5/8xx-888x-8-888-|-000-000-000-000-|P.M. ... ... ... ...
Bridge|-----------------------------|----||---------------------2x------|-4/-||--------3322-----------------|-3/-||-3-5-1111111-3-5-1-3-5555555-|-2/-||-3-5-1111111-3-5-1-3-5555555-|----||-3-5-1111111-3-5-1-3-5555555-|----|
8.Forsaken Tuning- Standard tuning
Intro|-------------------------------------------------------9-8-||-------------------------------------------------------9-8-||-------------------------------------------------------9-8-||-----------------------------------------------------------||-----------------------------------------------------------||-3-3--3-3--3---5-5--5-5--5---7-7--7-7--7---9-9--9-9--9-----|
Chorus|-3---3---4--4---3---3---3-2---3-||-3---3---4--4---3---3---3-2---3-||-3---3---4--4---3---3---3-2---3-||--------------------------------||--------------------------------||--------------------------------|
Those are all of Disturbed's 'hidden tracks'. ENJOY!(if you know them)
Please rate this tab:
x1.0