Disturbed - Decedence tab

Band- Disturbed
Song- Decadance
Album- 10,000 Fists
Tuning- C G C F A D

Intro- Fade in|------------------------------------|------------------------------------||------------------------------------|------------------------------------||------------------------------------|------------------------------------|2x|------------------------------------|------------------------------------||--------------5-------3-------2-----|--------------5-------3-------5-----||--3-2-0-2-0-2---2-0-2---2-0-2---2---|--3-2-0-2-0-2---2-0-2---2-0-2---2---|
Intro- Heavy Distortion|------------------------------------|------------------------------------||------------------------------------|------------------------------------||------------------------------------|------------------------------------|2x|--------------5-------3-------2-----|--------------5-------3-------5-----||--3-2-0-2-0-2---2-0-2---2-0-2---2---|--3-2-0-2-0-2---2-0-2---2-0-2---2---||--3-2-0-2-0-2---2-0-2---2-0-2---2---|--3-2-0-2-0-2---2-0-2---2-0-2---2---|
Verse|--------------------------------|-------------------------------||--------------------------------|-------------------------------||--------------------------------|-------------------------------||--------------------------------|-------------------------------||--------------------------------|-------------------------------||--222-0-2-0-2-222-0-2-0-2-3-2-0-|-222-0-2-0-2-222-0-2-0-2-3-2-0-|pm ... . . . . ... . . . . . . . ... . . . . ... . . . . . . . 2x
|--------------------------------|-------------------------------||--------------------------------|-------------------------------||--------------------------------|-------------------------------||--------------------------------|-------------------------------||--------------------------------|-------------5-------3-------5-||--222-0-2-0-2-222-0-2-0-2-3-2-0-|-222-0-2-0-2---2-0-2---2-0-2-5-|pm ... . . . . ... . . . . . . . ... . . . . . . . . . .
Chorus|---------------------------------------------||---------------------------------------------||--------------------------------------4-5-4--||--2--2--10--10--10--10-10-4-4-4-4-4-4--------||--2--2--10--10--10--10-10-4-4-4-4-4-4--------||--2--2--10--10--10--10-10-4-4-4-4-4-4--------|
|--------------------------------------------||--------------------------------------------||-------------------------------------4---7--||--2--2--10--10--10--10-10-4--4--4----x---x--||--2--2--10--10--10--10-10-4--4--4-44-2-0-5--||--2--2--10--10--10--10-10-4--4--4-44---0----|pm .. .
|---------------------------------------------||---------------------------------------------||--------------------------------------4-5-4--||--2--2--10--10--10--10-10-4-4-4-4-4-4--------||--2--2--10--10--10--10-10-4-4-4-4-4-4--------||--2--2--10--10--10--10-10-4-4-4-4-4-4--------|
|-------------------------------------------------------------||-------------------------------------------------------------||-------------------------------------------------------------||--2--2--0--0--0-0-0--10-10-10-10-10-10-10-10-10-10-10-10-10--||--2--2--0--0--0-0-0--10-10-10-10-10-10-10-10-10-10-10-10-10--||--2--2--0--0--0-0-0--10-10-10-10-10-10-10-10-10-10-10-10-10--|
Post Chorus|------------------------------------|------------------------------------||------------------------------------|------------------------------------||------------------------------------|------------------------------------||------------------------------------|------------------------------------||--------------5-------3-------2-----|--------------5-------3-------5-----||--3-2-0-2-0-2---2-0-2---2-0-2---2---|--3-2-0-2-0-2---2-0-2---2-0-2---2---|
|------------------------------------|------------------------------------||------------------------------------|------------------------------------||------------------------------------|------------------------------------||------------------------------------|------------------------------------||--------------5-------3-------2-----|--------------5-------3-------5-----||--3-2-0-2-0-2---2-0-2---2-0-2---2---|--3-2-0-2-0-2---2-0-2---2-0-2-5-----|
Verse 2x Chorus
Bridge|-------------------------------------------------||-------------------------------------------------||-------------------------------------------------||--14\\2-3-2-x-2-3-2-----14\\2-3-2-7-8-7-x-3-3----||--14\\2-3-2-x-2-3-2-2-2-14\\2-3-2-7-8-7-x-3-3----||--14\\2-3-2-x-2-3-2-2-2-14\\2-3-2-7-8-7-x-3-3----|pm . . 4x
|-------------------------------------------------||-------------------------------------------------||-------------------------------------------------||--14\\2-3-2-x-2-3-2-----14\\2-3-2-7-8-7-x-10-10--||--14\\2-3-2-x-2-3-2-2-2-14\\2-3-2-7-8-7-x-10-10--||--14\\2-3-2-x-2-3-2-2-2-14\\2-3-2-7-8-7-x-10-10--|pm . .
Last Chorus|-----------------------------------------------||-----------------------------------------------||--------------------------------------4-5-4----||--2--2--10--10--10--10-10-4-4-4-4-4-4----------||--2--2--10--10--10--10-10-4-4-4-4-4-4----------||--2--2--10--10--10--10-10-4-4-4-4-4-4----------|
|-----------------------------------------------||-----------------------------------------------||-------------------------------------4---------||--2--2--10--10--10--10-10-4--4--4----x---------||--2--2--10--10--10--10-10-4--4--4-44-2-0-0-0-0-||--2--2--10--10--10--10-10-4--4--4-44---0-0-0-0-|pm .. . . . .
|-----------------------------------------------||-----------------------------------------------||--------------------------------------4-5-4----||--2--2--10--10--10--10-10-4-4-4-4-4-4----------||--2--2--10--10--10--10-10-4-4-4-4-4-4----------||--2--2--10--10--10--10-10-4-4-4-4-4-4----------|
|-------------------------------------------------------------||-------------------------------------------------------------||-------------------------------------------------------------||--2--2--0--0--0-0-0--10-10-10-10-10-10-10-10-10-10-10-10-10--||--2--2--0--0--0-0-0--10-10-10-10-10-10-10-10-10-10-10-10-10--||--2--2--0--0--0-0-0--10-10-10-10-10-10-10-10-10-10-10-10-10--|
|-----------------------------------------||-----------------------------------------||-----------------------------------------||-10-10-10-10-10-10-10-10-10~~~~~~~~~~~~--||-10-10-10-10-10-10-10-10-10~~~~~~~~~~~~--||-10-10-10-10-10-10-10-10-10~~~~~~~~~~~~--|
Outro|------------------------------------|------------------------------------||------------------------------------|------------------------------------||------------------------------------|------------------------------------||------------------------------------|------------------------------------||--------------5-------3-------2-----|--------------5-------3-------5-----||--3-2-0-2-0-2---2-0-2---2-0-2---2---|--3-2-0-2-0-2---2-0-2---2-0-2---2---|
|------------------------------------|------------------------------------||------------------------------------|------------------------------------||------------------------------------|------------------------------------||------------------------------------|------------------------------------||--------------5-------3-------2-----|--------------5-------3-------5-----||--3-2-0-2-0-2---2-0-2---2-0-2---2---|--3-2-0-2-0-2---2-0-2---2-0-2-5-----|
|------------------------------------|------------------------------------||------------------------------------|------------------------------------||------------------------------------|------------------------------------||------------------------------------|------------------------------------||--------------5-------3-------2-----|--------------5-------3-------5-----||--3-2-0-2-0-2---2-0-2---2-0-2---2---|--3-2-0-2-0-2---2-0-2---2-0-2---2---|pm . . . . . . . . . . . . . . . . . . . . . . . . . .
|------------------------------------|------------------------------------||------------------------------------|------------------------------------||------------------------------------|------------------------------------||------------------------------------|------------------------------------||--------------5-------3-------2-----|--------------5-------3-------5-----||--3-2-0-2-0-2---2-0-2---2-0-2---2---|--3-2-0-2-0-2---2-0-2---2-0-2-5-----|pm . . . . . . . . . . . . .
Tap to rate this tab
 
# A B C D E F G H I J K L M N O P Q R S T U V W X Y Z