Doc Watson - Deep River Blues tab version 1

===============================================================================
============================Deep River Blues===================================
===============================Doc Watson======================================
===============================================================================
Tabbed by freakyimp

My very first tab hope its help for all the blues lover out there.
Found a good video for further reference check it out as it includes
Thumb jumping and fingering patterns.Enjoy !


http://www.youtube.com/watch?v=C4lMZxM5AFQ



Here's the tab

-7----------7-----------|---6----------6------------------|-------5----------------|----------5----------------------|-----7------------------|--------6------------------------|-------6------------6---|----------5----------------------|------------------------|---------------------------------|-0--------------0-------|---0--------------0--------------|
-7-----------0----------|---------3------0--2-------------|------8b-----------0----|--1h2--2----2--------------------|------------------------|---------------------------------|---------6------------0-|---------2-----------2-----------|------------------------|--0-------------0----------------|----0----------0--------|---------------------------------|
--0---------------------0----------------3----------------|---------------2------------------------------------------|----------1------------------------1-------------1--------|------------2---------------2--------2--------------2-----|----------------------------------------------------------|--0-----------------0----------0--------------0-----------|
--2-------------------------------------------------------|-------------3b------3b----0----------0-------------------|------2-------------------------2-----------2-------------|--------1-------------1-----------1-----------1-----------|--2--------------2---------2------------2-----------------|----------------------------------------------------------|
-7----------7-----------|---6----------6------------------|-------5----------------|----------5----------------------|-----7------------------|--------6------------------------|-------6------------6---|----------5----------------------|------------------------|---------------------------------|-0--------------0-------|---0--------------0--------------|
-7-----------0----------|---------3------0--2-------------|------8b-----------0----|--1h2--2----2--------------------|------------------------|---------------------------------|---------6------------0-|---------2-----------2-----------|------------------------|--0-------------0----------------|----0----------0--------|---------------------------------|
--0---------------------|------------3--------2-----------|----------0-----2-------|--0------------------------------|-----1------------------|------2--------------------------|-------2-----------2----|--------1------------1-----------|------------------------|--2-------------2----------------|--0---------0-----------|---------------------------------|
--0---------0--------------0-------0-----------0-----------|------------------0h2-----------------------2--------------|----0h1----------------------------------1-----------------|--------2--------------2--------------2-----0-----2--------|-----------------------------------------------------------|--0-----------0----------------0---------------------------|
============================================================ =======================THE END============================== ============================================================
Tap to rate this tab
 
# A B C D E F G H I J K L M N O P Q R S T U V W X Y Z