Dokken - Lightnin Strikes Again tab

Song:Lightnin' Strikes Again
Artist:Dokken
Written By:D.Dokken,G.Lynch,J.Pilson,M.Brown
Album:Under Lock And Key
Tuning:Standard

IntroModerate Fast Rock Q=180 Gtr I PM| PM| PM| PM| PM| PM| PM||--------||----------------|-----------------|-----------------|||--------||----------------|-----------------|-----------------|||--------||----2-----4-----|-6-----7-----7s6-|-----2-----4-----|||--------||----2-----4-----|-6-----7-----7s6-|-----2-----4-----|||--------||----------------|-----------------|-----------------|||--17\---||-2----2-2---2-2-|---2-2---2-2-----|-2-2---2-2---2-2-||
1.,2. PM| PM| PM| PM| PM| PM| PM| PM| PM| PM|||-----------------|-----------------|-----------------|------------------||||o----------------|-----------------|-----------------|-----------------o||||--6-----7-----6--|-----2-----4-----|-6-----7-----7s6-|-----2-----4------||||--6-----7-----6--|-----2-----4-----|-6-----7-----7s6-|-----2-----4------||||o----------------|-----------------|-----------------|-----------------o||||----2-2---2-2----|-2-2---2-2---2-2-|---2-2---2-2-----|-2-2---2-2---2-2--||
Verses 3. F#5 F#5 A5 PM| PM| ~~~|-----------------|-------------|--------------------||-------------||-----------------|-7-7-7-7-----|-7-7-7-7-(7)--(7)\--||o------------||-6-----7-----7---|-6-6-6-6-----|-6-6-6-6-(6)--(6)\--||-----------2-||-6-----7-----7-0-|-4-4-4-4-----|-4-4-4-4-(4)--(4)\--||--4--------2-||-----------------|-------------|--------------------||o-4------0-0-||---2-2---2-2-----|-------------|--------------------||--2----------|
E5 F#5 A5 PM----| PM| PM||---------------|------------------|-----------------|--------------||---------------|------------------|-----------------|--------------||-(2)-------2---|------------------|-------------2---|------------2-||-(2)---2---2-4-|-(4)----------4-4-|-----4-4-----2-4-|-(4)--------2-||-(0)---2-----4-|-(4)----------4-4-|-----4-4-------4-|-(4)------0-0-||-------0-----2-|-(2)--2-2-2-2-2-2-|-2-2-2-2-2-2---2-|-(2)----------|
E5 F#5 A5 PM----| ~~~ PM----||---------------|--------------------|------------|-----------------||---------------|--------------------|------------|-----------------||-(2)-------2---|--------------4s5-4-|-(4)--------|--------------2--||-(2)---2---2-4-|-(4)----------4s5-4-|-(4)--------|-4------------2--||-(0)---2-----4-|-(4)----------------|------------|-4----------0-0--||-------0-----2-|-(2)--2-2-2-2-------|------------|-2--2-2-2-2------|
E5 F#5 E5 A5 PM----| PM| PM||---------------|------------------|-----------------|----------------||---------------|------------------|-----------------|----------------||-(2)-------2---|------------------|-----------------|--------------2-||-(2)---2---2-4-|-(4)----------4-4-|-----4-4-------2-|-(2)----------2-||-(0)---2-----4-|-(4)----------4-4-|-----4-4-------2-|-(2)----------0-||-------0-----2-|-(2)--2-2-2-2-2-2-|-2-2-2-2-2-2-4-0-|-(0)----0-2-4---|
F#5 E5 PM----| PM--------||---------------|--------------------|--------------|-------------------||---------------|--------------------|--------------|-------------------||-(2)-----------|--------------4s5-4-|-(4)----------|-------------------||-(2)---------4-|-(4)----------4s5-4-|-(4)--------2-|-(2)---------------||-(0)-------0-4-|-(4)----------------|------------2-|-(2)---------------||-------4-----2-|-(2)--2-2-2-2-------|----------0-0-|-(0)--0-0-0-0-0-0--|
Chorus $ D5 B5 E5 C#5 F#5 PM--------||-----------------|-----------------|----------------||-----0-(0)----||-----------------|-----------------|----------------||-----0-(0)----||-------------7-7-|-(7)---4-(4)---9-|-(9)---6-(6)----||--------------||-------------7-7-|-(7)---4-(4)---9-|-(9)---6-(6)----||-4------------||-------------5-5-|-(5)---2-(2)---7-|-(7)---4-(4)----||-4------------||-0-0-0-0-0-0-----|-----------------|----------------||-2------------|
E5 F# PM| PM| PM||-(0)------0--|-0--0--0-0---|--0---0-0-(0)--0--|-----------------||-(0)------0--|-0--0--0-0---|--0---0-0-(0)--0--|-----------------||-------------|-------------|------------------|-----2-----4-----||-(4)---------|-2-----------|-(2)--------------|-----2-----4-----||-(4)---------|-2-----------|-(2)--------------|-----------------||-(2)---------|-0-----------|-(0)--------------|-2-2---2-2---2-2-|
F#5 PM| PM| PM| PM| PM| PM||-----------------|-----------------|-------------------|-----0-(0)----||-----------------|-----------------|-------------------|-----0-(0)----||-6-----7-----7s6-|-----2-----4-----|-6-----7-(7)-------|--------------||-6-----7-----7s6-|-----2-----4-----|-6-----7-(7)-------|-4------------||-----------------|-----------------|-------------------|-4------------||---2-2---2-2-----|-2-2---2-2---2-2-|---2-2--------12\--|-2------------|
To Coda E5 D5 C# ~|-(0)------0--|-0--0--0-0---|--0---0-0-(0)--0--|-----------||-(0)------0--|-0--0--0-0---|--0---0-0-(0)--0--|-----------||-------------|-------------|------------------|-7---------||-(4)---------|-2-----------|-(2)--------------|-7---------||-(4)---------|-2-----------|-(2)--------------|-5----4----||-(2)---------|-0-----------|-(0)--------------|-----------|
1. 2. B E5 F#5 ~ ~~~|-----------|-------------|---------------------||-------------||------5----|-7-7-7-7-----|-7-7-7-7-(7)--(7)\--o||-7-7-7-7-----||------4----|-6-6-6-6-----|-6-6-6-6-(6)--(6)\---||-6-6-6-6-----||------2----|-4-4-4-4-----|-4-4-4-4-(4)--(4)\---||-4-4-4-4-----||-2----2----|-------------|--------------------o||-------------||------0----|-------------|---------------------||-------------|
2/4 Gtr II|------------0-------------||---------|||-7-7-7-7----0-10b12==(10)-||-(10)----|||-6-6-6-6--x---------------||---------|||-4-4-4-4--x---------------||---------|||--------------------------||---------|||--------------------------||---------||
|
| Gtr I|--------------------------||---------|||--------------------------||---------|||--------------------------||---------|||--------------------------||---------|||--------------------------||---------|||--------------------------||---------||
Guitar Solo E5 D5 E5 B5 4/4 ~~~~~|----------7-7------10b12==|=(10)r-----(10)b12==(10)r(10)-7------||-(10)r--------10p7--------|--------------------------------10p==||--------------------------|-------------------------------------||--------------------------|-------------------------------------||--------------------------|-------------------------------------||--------------------------|-------------------------------------|
|
|--------------------------|-------------------------------------||--------------------------|-------------------------------------||---9----------------7-----|--(7)----9--(9)---------------4------||---9----------------7-----|--(7)----9--(9)---------------4------||---7----------------5-----|--(5)----7--(7)---------------2------||--------------------------|-------------------------------------|
D5|------------------------------------||--7--10-(10)-7h10p7-----------------||--------------------9b11==(9)r==(9)-||------------------------------------||------------------------------------||------------------------------------|
|
| Gtr III|------------------------------------||------------------------------------||------------------------------------||------------------------------------||------------------------------------||------------------------------------|
|
| Gtr I|------------------------------------||------------------------------------||-(4)-----------------------------7--||-(4)-----------------------------7--||-(2)-----------------------------5--||------------------------------------|
E5 F#5 A5 B5 F#5 ~~~ ~~~~~~~~~~~~~~~~~~|------------------------------|--------------|-------------------||------------------------------|--------------|-------------------||--9-----------7-------------9-|--11----------|-(11)--------------||------------------------------|--------------|-------------------||------------------------------|--------------|-------------------||------------------------------|--------------|-------------------|
|
|------------------------12----|-(12)---------|-(12)--------------||----------------12b14==(12)---|-(12)---------|-(12)--------------||------------------------------|--------------|-------------------||------------------------------|--------------|-------------------||------------------------------|--------------|-------------------||------------------------------|--------------|-------------------|
|
|------------------------------|--------------|-------------------||------------------------------|--------------|-------------------||-(7)---9-(9)------------------|------------2-|--(2)---4-(4)------||-(7)---9-(9)-------------4----|--(4)-------2-|--(2)---4-(4)---4--||-(5)---7-(7)-------------4----|--(4)-------0-|--(0)---2-(2)---4--||-------------------------2----|--(2)---------|----------------2--|
A5 B5 B5 ~~~~ PM---| PM-------||---------------------|----------------------------------------------------||---------------------|-------------------------------5-----3-------------5||-(11)----------------|-(11)\--------4------------4---4--------------------||---------------------|--------4------------------4------------------------||---------------------|----------------------------------------------------||---------------------|----------------------------------------------------|
|
| \3|-(12)------------/17-|-(17)--16-14-------17s19-(19)-17-18-------22b26=(22)||-(12)----(12)r-------|-------------17-14------------------17--------------||---------------------|---------------------------------------18-----------||---------------------|----------------------------------------------------||---------------------|----------------------------------------------------||---------------------|----------------------------------------------------|
|
|---------------------|----------------------------------------------------||---------------------|----------------------------------------------------||-------------------2-|--(2)------------------4--(4)----------------------4||--(4)--------------2-|--(2)------------------4--(4)----------------------4||--(4)--------------0-|--(0)------------------2--(2)----------------------2||--(2)----------------|----------------------------------------------------|
D5 E5 B5 \1/ \1/ ~ ~|-----------------------|---------------------7s10-7-10---||--(5)-5-(5)p3-5----0-5-|--(5)--(5)p3-5---(5)-------------||-----------------------|---------------------------------||-----------------------|---------------------------------||-----------------------|---------------------------------||-----------------------|---------------------------------|
|
| ~~~~~~~~~~~~~~~~~~~~~~~~~~~~|-(22)------------------|-(22)r---------------------------||-----------------------|---------------------------------||-----------------------|---------------------------------||-----------------------|---------------------------------||-----------------------|---------------------------------||-----------------------|---------------------------------|
|
|-----------------------|---------------------------------||-----------------------|---------------------------------||--(4)----------------7-|--(7)----------9-(9)---------4---||--(4)----------------7-|--(7)----------9-(9)---------4---||--(2)----------------5-|--(5)----------7-(7)---------2---||-----------------------|---------------------------------|
D5|-(10)-7h9p7h9p7----7----7------7-7------||----------------10---10---10p9-----10p7-||----------------------------------------||----------------------------------------||----------------------------------------||----------------------------------------|
|
|----------------------------------------||----------------------------------------||----------------------------------------||----------------------------------------||----------------------------------------||----------------------------------------|
|
|----------------------------------------||----------------------------------------||--(4)-------------------------------7---||--(4)-------------------------------7---||--(2)-------------------------------5---||----------------------------------------|
E5 F#5 A5|-------------------------------------------|---------------||--9p=7----7--------------------12b14==(12)-|-(12)----------||-------10---10p9p7-9p7h=9p=7---------------|---------------||-------------------------------------------|---------------||-----------------------------0-------------|---------------||-------------------------------------------|---------------|
|
| \4|-------------------------------------------|---------------||-------------------------------------------|---------------||-------------------------------------------|---------------||-------------xS==============x-------------|---------------||-------------xS==============x-------------|---------------||----------------------------------------0--|--(0)----------|
|
|-------------------------------------------|---------------||-------------------------------------------|---------------||-(7)---------------9---(9)-----------------|------------2--||-(7)---------------9---(9)--------------4--|--(4)-------2--||-(5)---------------7---(7)--------------4--|--(4)-------0--||----------------------------------------2--|--(2)----------|
B5 F#5 A5|----------------------------------|---------------------------------------||(12)------------------------------|(12)r=============================(12)-||----------------------------------|---------------------------------------||----------------------------------|---------------------------------------||----------------------------------|---------------------------------------||----------------------------------|---------------------------------------|
|
|----------------------------------|---------------------------------------||------17b19==(17)--------(17)r(17)|-14h=17p14----------14-----------------||----------------------------------|-----------17p16p14----17p16p14------14||----------------------------------|--------------------------------16-----||----------------------------------|---------------------------------------||-(0)------------------------------|---------------------------------------|
|
|----------------------------------|---------------------------------------||----------------------------------|---------------------------------------||-(2)--------------4-(4)-----------|-----------------------------------2---||-(2)--------------4-(4)---------4-|-(4)-------------------------------2---||-(0)--------------2-(2)---------4-|-(4)-------------------------------0---||--------------------------------2-|-(2)-----------------------------------|
B5 B5 D5 ~~~~~|--------------/19-21-21b22==(21)-|-(21)r--------22b26==(22)--||---------------------------------|---------------------------||---------------------------------|---------------------------||---------------------------------|------------0--------------||---------------------------------|---------------------------||---------------------------------|---------------------------|
|
| ~~~~|---------------------------------|---------------------------||---------------------------------|---------------------------||-(14)----------------------------|--16\----------------------||---------------------------------|---------------------------||---------------------------------|---------------------------||---------------------------------|---------------------------|
|
|---------------------------------|---------------------------||---------------------------------|---------------------------||--(2)---4-(4)-----------------4--|--(4)------------------7---||--(2)---4-(4)-----------------4--|--(4)------------------7---||--(0)---2-(2)-----------------2--|--(2)------------------5---||---------------------------------|---------------------------|
E5 B5 D5|-(22)-----(22)r\-----|-19p=14-14-14-14-14-19p14-14-14-14-14-17p14-17p14-||---------------------|--------------------------------------------------||---------------------|--------------------------------------------------||---------------------|--------------------------------------------------||---------------------|--------------------------------------------------||---------------------|--------------------------------------------------|
|
|---------------------|--------------------------------------------------||---------------------|--------------------------------------------------||---------------------|--------------------------------------------------||---------------------|--------------------------------------------------||---------------------|--------------------------------------------------||---------------------|--------------------------------------------------|
|
|---------------------|--------------------------------------------------||---------------------|--------------------------------------------------||--(7)---9--(9)-----4-|-(4)-----------------------------------------7----||--(7)---9--(9)-----4-|-(4)-----------------------------------------7----||--(5)---7--(7)-----2-|-(2)-----------------------------------------5----||---------------------|--------------------------------------------------|
E5 F#5|-15p=14-------14-------------------------------------||--------15-17----17-15-17--14h15p14------------------||------------------------------------16-14-16---------||---------------------------------------------14------||------------------------------------------------16---||-----------------------------------------------------|
|
|----------------------------------------------5p=2---||-----------------------------------------------------||-----------------------------------------------------||-----------------------------------------------------||-----------------------------------------------------||-----------------------------------------------------|
|
|-----------------------------------------------------||-----------------------------------------------------||-(7)--------------9----(9)---------------------------||-(7)--------------9----(9)--------------------4------||-(5)--------------7----(7)--------------------4------||----------------------------------------------2------|
A5 ~~~~~~~~~~~~~~~~~~~~~~~~~~~~~~~~~~|------------------------------------||------------------------------------||------------------------------------||------------------------------------||-(16)-------------------------------||------------------------------------|
|
|---4p=2-----------------------------||--------5p2-5p2-3p2---2-------------||--------------------4---5p4p2-5p4p2-||------------------------------------||------------------------------------||------------------------------------|
|
|------------------------------------||------------------------------------||--------------------------------2---||--(4)---------------------------2---||--(4)---------------------------0---||--(2)-------------------------------|
B5 F#5 A5 ~~~~~~~~~~~~~~~~~~~~~~~~~~~~~~~~~~~~~~~~|---------------------------------|---------------||---------------------------------|---------------||---------------------------------|---------------||---------------------------------|---------------||-(16)----------------------------|-(16)----------||---------------------------------|---------------|
|
| ~~~~|-------------------------------4-|--(4)----------||---------------------------------|---------------||---------------------------------|---------------||---5p=2-5p4p2---------------4----|---------------||--------------5p4p2--------------|---------------||--------------------5p3p=2-------|---------------|
|
|---------------------------------|---------------||---------------------------------|---------------||--(2)---------------4---(4)------|------------2--||--(2)---------------4---(4)----4-|--(4)-------2--||--(0)---------------2---(2)----4-|--(4)-------0--||-------------------------------2-|--(2)----------|
B5 B5 D5 ~~~~ ~~~~~~~~~~~|-----------------------|-----------------------------||--------------------14-|-15-----(15)---17b19==(17)---||-----------------16----|-----------------------------||--------------16-------|-----------------------------||-(16)------------------|-------------0---------------||-----------------------|-----------------------------|
|
| ~~~~|--(4)------------------|-----------------------------||-----------------------|-----------------------------||-----------------------|-----------------------------||-----------------------|-----------------------------||-----------------------|-----------------------------||-----------------------|-----------------------------|
|
|-----------------------|-----------------------------||-----------------------|-----------------------------||--(2)---4-(4)--------4-|-(4)-----------------------7-||--(2)---4-(4)--------4-|-(4)-----------------------7-||--(0)---2-(2)--------2-|-(2)-----------------------5-||-----------------------|-----------------------------|
E5 B5 D5 PM||-------------------------|------------------------------------||-(17)-----(17)r-------14-|-(14)b15==(14)r(14)----14-----------||-------------------16----|--------------------16----14-14-----||----------------16-------|--------------------------------16--||-------------------------|------------------------------------||-------------------------|------------------------------------|
|
|-------------------------|------------------------------------||-------------------------|------------------------------------||-------------------------|------------------------------------||-------------------------|------------------------------------||-------------------------|------------------------------------||-------------------------|------------------------------------|
|
|-------------------------|------------------------------------||-------------------------|------------------------------------||--(7)---9--(9)---------4-|--(4)----------------------------7--||--(7)---9--(9)---------4-|--(4)----------------------------7--||--(5)---7--(7)---------2-|--(2)----------------------------5--||-------------------------|------------------------------------|
E5 E5 ~~~~~~~~~~~~~~~~~~~~~~~~~~|---------16b17==========16r===|=(16)-----------------------||----------------17b19==(17)r==|=(17)-----------------------||------------------------------|----------------------------||------------------------------|----------------------------||------------------------------|----------------------------||------------------------------|----------------------------|
|
|------------------------------|---------------14-16-16b17==||------------------------------|-----------/14--------------||------------------------------|----------------------------||------------------------------|----------------------------||------------------------------|----------------------------||------------------------------|----------------------------|
|
| PM--------------------|------------------------------|----------------------------||------------------------------|----------------------------||-(7)---9-(9)------------------|----------------------------||-(7)---9-(9)----------------2-|--(2)-----------------------||-(5)---7-(7)----------------2-|--(2)-----------------------||----------------------------0-|--(0)--0-0---0--0--0--0-----|
D5 E5 B5 ~~~~~~~|-(16)--------------------------|------------------------------------------||-(17)--------------------------|------------------------------------------||-------------------------------|------------------------------------------||-------------------------------|------------------------------------------||-------------------------------|------------------------------------------||-------------------------------|------------------------------------------|
|
| ~~~~~|-(16)r---------/14-12h14p12s10h|=12p=10h12p10s9-10p9s7--9p=7s5-7p5s4-5p4s2||-------------------------------|------------------------------------------||-------------------------------|------------------------------------------||-------------------------------|------------------------------------------||-------------------------------|------------------------------------------||-------------------------------|------------------------------------------|
|
|---------------||-------------------------------|------------------------------------------||-------------------------------|------------------------------------------||--------------------7--------7-|-(7)-----------------9-(9)-----------4----||--------------------7--------7-|-(7)-----------------9-(9)-----------4----||--------------------5--------5-|-(5)-----------------7-(7)-----------2----||---0---0-0-0-0---0-------------|------------------------------------------|
C#5|--4p=2--------------------------------------------|||-------5p2-5p4p2-5p4p=2---------------------------|||-------------------------5-5-[4]b5==([4])r([4])-2-|||--------------------------------------------------|||--------------------------------------------------|||--------------------------------------------------||
|
| Gtr I|--------------------------------------------------|||--------------------------------------------------|||-(4)-------------6---(6)--------------------------|||-(4)-------------6---(6)--------------------------|||-(2)-------------4---(4)--------------------------|||--------------------------------------------------||
F# ~~~~~~~~~~~~~~~~~~~~~|----------------|--------------------||----------------|--------------------||----------------|--------------------||-4--------------|-(4)----------------||----------------|--------------------||----------------|--------------------|
|
| PM| PM| PM| PM||----------------|--------------------||----------------|--------------------||----2-----4-----|--6------7-----7s6--||----2-----4-----|--6------7-----7s6--||----------------|--------------------||-2----2-2---2-2-|-----2-2---2-2------|
\4 ~~~~~~~~~~~~~~~~~~~~~~~|-------------------|------------------|-------------------|---------------||-------------------|------------------|-<5>---------------|---------------||-------------------|------------------|-------------------|---------------||-(4)---------------|-(4)--------------|-------------------|---------------||-------------------|------------------|-------------------|---------------||-------------------|------------------|-------------------|---------------|
|
| PM-| PM| PM| PM| PM| PM-| PM| PM| PM| PM||-------------------|------------------|-------------------|---------------||-------------------|------------------|-------------------|---------------||-------2-----4-----|--6------7-----6--|-------2-----4-----|6-----7-----7s6||-------2-----4-----|--6------7-----6--|-------2-----4-----|6-----7-----7s6||-------------------|------------------|-------------------|---------------||--2--2---2-2---2-2-|-----2-2---2-2----|--2--2---2-2---2-2-|--2-2---2-2----|
Outro D.S. al Coda & D5 C# Gtr I PM| PM| PM| ~|-----------------|----------||----------|------||-----------------|----------||----------|------||-----2-----4-----|-6--------||-7--------|------||-----2-----4-----|-6--------||-7--------|------||-----------------|----------||-5--------|-4----||-2-2---2-2---2-2-|----------||----------|------|
B A G# F# ~~~~~~~~~~~~~~~~~~ PM| PM| PM| PM| PM||----------|-----------||------------------|-----------------||----------|-----------||o-----------------|-----------------||----------|-----------||------2-----4-----|-6-----7-----7s6-||----------|-----------||------2-----4-----|-6-----7-----7s6-||-2--------|-----------||o-----------------|-----------------||----------|-5----4----||--2-2---2-2---2-2-|---2-2---2-2-----|
PM| PM| PM| PM| PM| PM| PM| PM| PM| PM| 5x|-----------------|-----------------||-----------------|-----------------||-----------------|----------------o||-----------------|-----------------||-----2-----4-----|-6-----7-----6---||-----2-----4-----|-6-----7-----7s6-||-----2-----4-----|-6-----7-----6---||-----2-----4-----|-6-----7-----7s6-||-----------------|----------------o||-----------------|-----------------||-2-2---2-2---2-2-|---2-2---2-2-----||-2-2---2-2---2-2-|---2-2---2-2-----|
F#5|-------------|----------------*||-7-7-7-7-----|-7-7-7-7-7-7\---*||-6-6-6-6-----|-6-6-6-6-6-6\---*||-4-4-4-4-----|-4-4-4-4-4-4\---*||-------------|----------------*||-------------|----------------*|
Tap to rate this tab
 
# A B C D E F G H I J K L M N O P Q R S T U V W X Y Z