Donnas – Fall Behind Me tab

The Donnas - Fall Behind Me


Main riff:
                                                             
E||-----------------------------|---------------------------|B||-----------------------------|---------------13----------|G||----------------12--10~------|---------------12b---10~---|D||--0--10--12--0------------0--|----10--12--0--------------|A||-----------------------------|---------------------------|E||-----------------------------|---------------------------|
-----------------------------|-----------------------------|-----------------------------|-----------------------------|----------------12--10~------|---------------12b-12--10~---|--0--10--12--0------------0--|----10--12--0----------------|-----------------------------|-----------------------------|-----------------------------|-----------------------------|
Verse:
------------------------|----------------------|------------------------|----------------------|--7----7----x--7--x--5b-|---------5b-----------|--7----7----x--7--x--0--|----7----0----7--5----|------------------------|----------------------|------------------------|----------------------|
-----------------------|----------------------|-----------------------|----------------------|-------7--7----7----7--|----7-----------------|-------7--7----7----7--|----7-----------------|--8--------------------|---------10b-----8----|-----------------------|----------------------|
-----------------------|----------------------|-----------------------|----------------------|-------7--7----7----5b-|----------------------|-------7--7----7----0--|----7-----------------|--7--------------------|---------10b-----8----|-----------------------|----------------------|
----------------------|----------------------|----------------------|----------------------|-----------------2----|--2-------------------|--0--------x--x--3----|--2----2----2--2------|----------------------|-------3----2--2------|----------------------|----------------------|
Chorus:
-----------------------|-------------------------|-----------------------|-------------------------|--7--------7--7--7--7--|----7--7--7--7--7--7--7--|--7--------7--7--7--7--|----7--7--7--7--7--7--7--|--5--------5--5--5--5--|----5--5--5--5--5--5--5--|-----------------------|-------------------------|
------------------------|-------------------------|------------------------|-------------------------|--5----5----5--5--5--5--|----5--5--5--5--5--5--5--|--5----5----5--5--5--5--|----5--5--5--5--5--5--5--|--3----3----3--3--3--3--|----3--3--3--3--3--3--3--|------------------------|-------------------------|
------------------------|-----------------------|------------------------|-----------------------|--0----0-------0-----0--|----0----0----0--0--0--|--0----0----x--0--x--0--|----0----0----0--0--0--|--2----2----x--2--x--2--|----2----2----2--2--2--|------------------------|-----------------------|
-------------------------|-------------------------|-------------------------|-------------------------|--2----2--2--2--2--2--5--|----5--5--5--5--5--5--5--|--3----3--3--3--3--3--5--|----5--5--5--5--5--5--5--|--3----3--3--3--3--3--3--|----3--3--3--3--3--3--3--|--1----1--1--1--1--1-----|-------------------------|
Solo:
--------------------------|---------------------|--------------------------|---------------------|--------------5-----5--7b-|----7----5~----------|--------5--7-----7--------|----------------7~---|--5--7--------------------|---------------------|--------------------------|---------------------|
--------------------------|---------------------|--------------------------|----8----------------|--------------5-----5--7b-|---------7r-----7b---|--------5--7-----7--------|---------------------|--5--7--------------------|---------------------|--------------------------|---------------------|
----------------------------------|------------------------|----------------------------------|------------------------|------------------17------17--19b-|----19----17~-----19r---|----------17--19------19----------|------------------------|-/17--19--------------------------|------------------------|----------------------------------|------------------------|
----------------------------|----------------------------|----------------------------|----------------------------|------17------19--17~-------|----------------------------|----------19------------19--|----17----------------------|----------------------------|--------19--18--17--15~-----|----------------------------|----------------------------|
Bridge:
------------------------|-------0------------|------------------------|-------0------------|------------------------|--------------------|--2----2----2--2--2-----|--------------------|--0----0----0--0--0--3--|----5---------------|------------------------|--------------------|
------------------------|------------------------|------------------------|------------------------|------------------------|------------------------|--2----2----2--2--2--2--|----2--2--2--2--2--2----|--0----0----0--0--0--0--|----0--0--0--0--0--0----|------------------------|------------------------|
----------------------|-------------------------||----------------------|-------------------------||--2----2--------------|--------------5/-7--7\---||--3----2----2----2----|--3--3--3--3--3/-5--5\---||------------3----2----|-------------------------||----------------------|-------------------------||
Please rate this tab:
x1.0