Doobie Brothers - Listen To The Music tab

LISTEN TO THE MUSIC
Doobie Brothers


Words and Music by Tom Johnston

   E
   0 11 9 9 9 x

   A/C#
   x x 11 9 10 x

   C#m
   9 11 11 9 9 9

   B
   7 9 9 8 7 7

   A
   5 7 7 6 5 5

   A7sus4
   x 0 5 7 5 5

   F#7
   2 x 4 3 2 0

   A [open]
   x 0 2 2 2 0

   Asus2
   x 0 2 2 0 0

   AVI
   x 0 7 6 x x

   E5/B
   x x x x 0 0

   D/E
   0 9 7 7 7 x

   E/B
   x x 9 9 9 x

   F#
   x x 4 3 2 x

   G#
   x 11 13 13 13 11

   E/G#
   x 11 9 9 9 x

Gtr I (E A D G B E) - 'Rhythm'
Gtr II (E A D G B E) - 'Rhythm 2'
Gtr III (E A D G B E) - 'Lead'
Gtr IV (E A D G B E) - 'Banjo (arranged for guitar)'

Intro E/G# 4/4 Gtr I|--------------------------------------||------9-x-x--9--9--9--9--9--9-x--9--9-||----9-9-x-x--9--9--9--9--9--9-x--9--9-||----9-9-x-x--9--9--9--9--9--9-x--9--9-||-9h11---x-x-11-11-11-11-11-11-x-11-11-||--------------------------------------|
A/C# E/B|-----------------------------------------||-------9--9-x---10-10-10-10-10-10-9-x----||----9--9--9-x-9-----9--9--9--9--9-9-x----||----9--9--9-x-9h11-11-11-11-11-11-9-x----||-9h11-11-11-x-------------------------11-||-----------------------------------------|
E/G# Gtrs I, II||---------------------------------------|||o------9-x-x--9--9--9--9--9--9-x--9--9-|||-----9-9-x-x--9--9--9--9--9--9-x--9--9-|||-----9-9-x-x--9--9--9--9--9--9-x--9--9-|||o-9h11---x-x-11-11-11-11-11-11-x-11-11-|||---------------------------------------|
A/C# E/B 3x|------------------------------------------|||-------9--9-x---10-10-10-10-10-10-9-x----o|||----9--9--9-x-9-----9--9--9--9--9-9-x-----|||----9--9--9-x-9h11-11-11-11-11-11-9-x-----|||-9h11-11-11-x-------------------------11-o|||------------------------------------------||
Verse $ E/G#||---------------------------------------|||o------9-x-x--9--9--9--9--9--9-x--9--9-|||-----9-9-x-x--9--9--9--9--9--9-x--9--9-|||-----9-9-x-x--9--9--9--9--9--9-x--9--9-|||o-9h11---x-x-11-11-11-11-11-11-x-11-11-|||---------------------------------------|
A/C# E/B|-----------------------------------------||-------9--9-x-9h10-10-10-10-10-10-9-x----||----9--9--9-x-9-----9--9--9--9--9-9-x----||----9--9--9-x-9h11-11-11-11-11-11-9-x----||-9h11-11-11-x-------------------------11-||-----------------------------------------|
E/G#|--------------------------------------||------9-x-x--9--9--9--9--9--9-x--9--9-||----9-9-x-x--9--9--9--9--9--9-x--9--9-||----9-9-x-x--9--9--9--9--9--9-x--9--9-||-9-11---x-x-11-11-11-11-11-11-x-11-11-||--------------------------------------|
C#m E B E Gtr II | | | | | | | | | | || | | | | | | | / / / / / / / / / / // / / / / / / /
|--9--9--9--9--(9)--9--9--9---|-7--7-7-7-(7)-7-7-7----||--9--9--9--9--(9)--9--9--9---|-7--7-7-7-(7)-7-7-7----||--9--9--9--9--(9)--9--9--9---|-8--8-8-8-(8)-8-8-8----||-11-11-11-11-(11)-11-11-11---|-9--9-9-9-(9)-9-9-9----||-11-11-11-11-(11)-11-11-11---|-9--9-9-9-(9)-9-9-9----||--9--9--9--9--(9)--9--9--9-0-|-7--7-7-7-(7)-7-7-7-0--|
A A7sus4 E | || | | | | | | | | | | | | | | | | / // / / / / / / / / / / / / / o o /
|-5--5-5-5-(5)-5-5-5-5-|---5-5-5-5-(5)-5-5--------||-5--5-5-5-(5)-5-5-5-5-|---5-5-5-5-(5)-5-5--------||-6--6-6-6-(6)-6-6-6-6-|-6h7-7-7-7-(7)-7-7--------||-7--7-7-7-(7)-7-7-7-7-|---5-5-5-5-(5)-5-5--------||-7--7-7-7-(7)-7-7-7-7-|---7-7-7-7-(7)-7-7-9h11---||-5--5-5-5-(5)-5-5-5-5-|---5-5-5-5-(5)-5-5------0-|
1.,3. E/G# Gtrs I, II|--------------------------------------||------9-x-x--9--9--9--9--9--9-x--9--9-||----9-9-x-x--9--9--9--9--9--9-x--9--9-||----9-9-x-x--9--9--9--9--9--9-x--9--9-||-9h11---x-x-11-11-11-11-11-11-x-11-11-||--------------------------------------|
A/C# E/B|------------------------------------------|||-------9--9-x-9h10-10-10-10-10-10-9-x----o|||----9--9--9-x-9-----9--9--9--9--9-9-x-----|||----9--9--9-x-9h11-11-11-11-11-11-9-x-----|||-9h11-11-11-x-------------------------11-o|||------------------------------------------||
Chorus 2.,4. E C#m Gtr II | | | | | | | | | | | | | | | | | | | | | / / / / / / / / / / / / / / / / / / / / /
Gtr I|----------------------|-x-4---4-4-----4-4-4-4-(4)-4-4-||------9-9-9-9-9-9-9-x-|-x-5---5-5-----5-5-5-5-(5)-5-5-||----9-9-9-9-9-9-9-9-x-|-x-6---6-6-----6-6-6-6-(6)-6-6-||----9-9-9-9-9-9-9-9-x-|-x-6---6-6-----6-6-6-6-(6)-6-6-||-9h11-----------------|-x-4---4-4-----4-4-4-4-(4)-4-4-||----------------------|-------------------------------|
|
| Gtr IV|----------------------|---------0-------------------0-||----------------------|---5-------5---5--------4------||----------------------|-----6-------6---6-------------||----------------------|-6-----6-----------6-----------||----------------------|-------------------------------||----------------------|-------------------------------|
A | | | | | | | | | | | | / / / / / / / / / / / /
|-x-5---5-5-----5-5-5-(5)-5-5-5-||-x-5---5-5-----5-5-5-(5)-5-5-5-||-x-6---6-6-----6-6-6-(6)-6-6-6-||-x-7---7-7-----7-7-7-(7)-7-7-7-||-x-7---7-7-----7-7-7-(7)-7-7-7-||-------------------------------|
|
|---------0-------------------0-||---5-------5---5---------4-----||-----6-------6---6-------------||-7-----7-----------7-----------||-------------------------------||-------------------------------|
C#m A | | | | | | | | | | | | | | | | | | | | | | | | | / / / / / / / / / / / / / / / / / / / / / / / / /
|-x-4---4-4-----4-4-4-4-(4)-4-4-|-x-5---5-5-----5-5-5-(5)-5-5-5-||-x-5---5-5-----5-5-5-5-(5)-5-5-|-x-5---5-5-----5-5-5-(5)-5-5-5-||-x-6---6-6-----6-6-6-6-(6)-6-6-|-x-6---6-6-----6-6-6-(6)-6-6-6-||-x-6---6-6-----6-6-6-6-(6)-6-6-|-x-7---7-7-----7-7-7-(7)-7-7-7-||-x-4---4-4-----4-4-4-4-(4)-4-4-|-x-7---7-7-----7-7-7-(7)-7-7-7-||-------------------------------|-------------------------------|
|
|---------0-------------------0-|---------0-------------------0-||---5-------5---5--------4------|---5-------5---5---------4-----||-----6-------6---6-------------|-----6-------6---6-------------||-6-----6-----------6-----------|-7-----7-----------7-----------||-------------------------------|-------------------------------||-------------------------------|-------------------------------|
C#m A | | | | | | | | | | | | | | | | | | | | | | | | | / / / / / / / / / / / / / / / / / / / / / / / / /
|-x-4---4-4-----4-4-4-4-(4)-4-4-|-x-5---5-5-----5-5-5-(5)-5-5-5-||-x-5---5-5-----5-5-5-5-(5)-5-5-|-x-5---5-5-----5-5-5-(5)-5-5-5-||-x-6---6-6-----6-6-6-6-(6)-6-6-|-x-6---6-6-----6-6-6-(6)-6-6-6-||-x-6---6-6-----6-6-6-6-(6)-6-6-|-x-7---7-7-----7-7-7-(7)-7-7-7-||-x-4---4-4-----4-4-4-4-(4)-4-4-|-x-7---7-7-----7-7-7-(7)-7-7-7-||-------------------------------|-------------------------------|
|
|---------0-------------------0-|---------0-------------------0-||---5-------5---5--------4------|---5-------5---5---------4-----||-----6-------6---6-------------|-----6-------6---6-------------||-6-----6-----------6-----------|-7-----7-----------7-----------||-------------------------------|-------------------------------||-------------------------------|-------------------------------|
Aopen Asus2 AVI E5/BAVI E5/BAopen Asus2 Aopen Asus2 Aopen | | | | | | | | | | | | | | | | | / / x / / / / / / / / x / / / / /
|-x-0---0-0-----0-0-0-0-(0)-0-0-|---------------------------------||-x-2---2-2-----2-2-2-2-(2)-2-2-|-x-2---(2)-0-----2-----0-(0)---2-||-x-3---3-3-----3-3-3-3-(3)-3-3-|-x-2---(2)-2-----2-----2-(2)---2-||-x-4---4-4-----4-4-4-4-(4)-4-4-|-x-2---(2)-2-----2-----2-(2)---2-||-x-4---4-4-----4-4-4-4-(4)-4-4-|-x-0---(0)-0-----0-----0-(0)---0-||-------------------------------|---------------------------------|
|
|---------0--------------0------|-----------0-------------------0-||---2-------2---2-------------2-|---5---------5---5--------5------||-----3-------3---3-------------|-----6---------6---6---------6---||-4-----4-----------4-----------|-7------7------------7-----------||-------------------------------|---------------------------------||-------------------------------|---------------------------------|
To Coda Asus2 AVI AsF#G# E5/B | | | | | | | | | | x / / x / / / o o o
|--------------------------------||-x-2---(2)-0---------0----------||-x-2---(2)-2-----2---2----------||-x-2---(2)-2-----2---2------9---||-x-0---(0)-0-----0---0-9-11-----||--------------------------------|
|
|-----------0----------------0---||---5---------5---5-----5--------||-----6---------6---6------6-----||-7------7------------7----------||--------------------------------||--------------------------------|
E/G# Gtrs I, II||---------------------------------------|||o------9-x-x--9--9--9--9--9--9-x--9--9-|||-----9-9-x-x--9--9--9--9--9--9-x--9--9-|||-----9-9-x-x--9--9--9--9--9--9-x--9--9-|||o-9h11---x-x-11-11-11-11-11-11-x-11-11-|||---------------------------------------|
D.S. al Coda A/C# E/B|-------------------------------------------|||-------9--9-x-9h10-10-10-10-10-10-9-x-----o|||----9--9--9-x-9-----9--9--9--9--9-9-x------|||----9--9--9-x-9h11-11-11-11-11-11-9-x------|||-9h11-11-11-x-------------------------11--o|||-------------------------------------------||
Bridge & E E/B Gtr I|------------------------------||----------------------9-------||--9------------(9)----9-------||--9------------(9)----9-------||-11-----------(11)-11---------||--0------------(0)------------|
|
| Gtr III|------------------------------||-12b14r(12)-------------11b13r||------------------------------||------------------------------||------------------------------||------------------------------|
D/E D/F# A|------------------------|-------------------------||-^7---------------------|-^10-----------10--------||-^7-----7-------7--9----|-^-9----x-------9------9-||-^7-----7-9-7---7-------|-^11----x-9-11---------9-||-^x---9-------9---------|-^-0--------------9-11---||-^0---------------------|------------------0------|
|
|------------------12b14r|=(12)--------------------||-10---------------------|-------------------------||------------------------|-------------------------||------------------------|-------------------------||------------------------|-------------------------||------------------------|-------------------------|
E5/B E/B E/C#|-----------------------------------------||-------------9-9---9---------------------||--9------9-9-9-9---9---------------9-----||--9------9-9-9-9--11p=9------------9-----||-------------------------11--9h11--------||-----------------------------0-----------|
|
|-----------------------------------------||-12pb14==========(12)r==(12)------12pb14r||-----------------------------------------||-----------------------------------------||-----------------------------------------||-----------------------------------------|
E D/E|--------------------------|---------------------------------||--------------------------|--7--------------------7---------||---9-----11p9----9--------|--7--------------7-----7---------||---9-----11p9----9--------|--7------------7h9p7---7-/9------||--11----------11---11-----|--x------------------9-----------||---0----------------------|--0------------------------------|
|
|--------------------------|-------------------------12pb14r=||-(12)--------------11pb13r|=10-(10)-(10)--------------------||--------------------------|---------------------------------||--------------------------|---------------------------------||--------------------------|---------------------------------||--------------------------|---------------------------------|
A/C#|--------------------------||--10---x-x--10-10-x-------||---9---x-x---9--9-x-------||--11---x-x--11-11-x-------||--------------------------||--------------------------|
|
|-(12)---------------14b16-||--------------------------||--------------------------||--------------------------||--------------------------||--------------------------|
|--------------------------------------------------------||--10--10--x---------x--x-10--------10--10--------10--10-||---9---9--x---------x--x--9---------9---9---------9---9-||--11--11--x---------x--x-11--------11--11--------11--11-||--------------------------------------------------------||--------------------------------------------------------|
|
|-(14)-------14b16-(14)------14b16-(14)----14b16-(14)----||--------------------------------------------------------||--------------------------------------------------------||--------------------------------------------------------||--------------------------------------------------------||--------------------------------------------------------|
Out-Chorus C#m A Gtr II | | | | | | | | | | | | | | | | | | | | | | | | | / / / / / / / / / / / / / / / / / / / / / / / / /
Gtr I|-x--4---------4--4-----4-4-4-4--(4)-4---4--|-x-5---5-5------5--5-5-(5)5--5-5-||-x--5---------5--5-----5-5-5-5--(5)-5---5--|-x-5---5-5------5--5-5-(5)5--5-5-||-x--6---------6--6-----6-6-6-6--(6)-6---6--|-x-6---6-6------6--6-6-(6)6--6-6-||-x--6---------6--6-----6-6-6-6--(6)-6---6--|-x-7---7-7------7--7-7-(7)7--7-7-||-x--4---------4--4-----4-4-4-4--(4)-4---4--|-x-7---7-7------7--7-7-(7)7--7-7-||-------------------------------------------|---------------------------------|
|
| Gtr IV|-----------------0----------------------0--|---------0---------------------0-||----5--------------5---5---------4---------|---5-------5----5---------4------||----------6----------6---6-----------------|-----6-------6-----6-------------||-6------------6------------6---------------|-7-----7-------------7-----------||-------------------------------------------|---------------------------------||-------------------------------------------|---------------------------------|
|
| Gtr III| ~~~~~~~~~~~~~~~~~~|-------------------------------------------|---------------------------------||-------------------------------------------|---------------------------------||---11b13====(11)---------------(11)r==(11)-|-9-------------(9)---9h11p9----9-||-------------------------------------------|----------------------------11---||-------------------------------------------|---------------------------------||-------------------------------------------|---------------------------------|
C#m | | | | | | | | | | | | | / / / / / / / / / / / / /
|---------x--4-----------4--4-------------4--4-4-4---------(4)-4---4--||---------x--5-----------5--5-------------5--5-5-5---------(5)-5---5--||---------x--6-----------6--6-------------6--6-6-6---------(6)-6---6--||---------x--6-----------6--6-------------6--6-6-6---------(6)-6---6--||---------x--4-----------4--4-------------4--4-4-4---------(4)-4---4--||---------------------------------------------------------------------|
|
|---------------------------0--------------------------------------0--||------------5----------------5-----------5-----------------4---------||--------------6----------------6------------6------------------------||---------6--------------6---------------------6----------------------||---------------------------------------------------------------------||---------------------------------------------------------------------|
|
|---------------------------------------------------------------------||---------------------------------------------------------------------||-11b13-(11)-----11b13-(11)-------11b13-(11)-------11b13==(11)r==(11)-||---------------------------------------------------------------------||---------------------------------------------------------------------||---------------------------------------------------------------------|
A | | | | | | | | | | | | / / / / / / / / / / / /
|-x-5---5-5-----5-5-5-(5)-5-5-5--||-x-5---5-5-----5-5-5-(5)-5-5-5--||-x-6---6-6-----6-6-6-(6)-6-6-6--||-x-7---7-7-----7-7-7-(7)-7-7-7--||-x-7---7-7-----7-7-7-(7)-7-7-7--||--------------------------------|
|
|---------0-------------------0--||---5-------5---5---------4------||-----6-------6---6--------------||-7-----7-----------7------------||--------------------------------||--------------------------------|
|
| ~~~~~~~~~~~~~~~~~~~~~~~~~~|--------------------------------||--------------------------------||-9-----------------------9------||--------------------------------||--------------------------------||--------------------------------|
C#m | | | | | | | | | | | | | / / / / / / / / / / / / /
|--x-----4-----4--4--------4--4--4--4-(4)-4--4----||--x-----5-----5--5--------5--5--5--5-(5)-5--5----||--x-----6-----6--6--------6--6--6--6-(6)-6--6----||--x-----6-----6--6--------6--6--6--6-(6)-6--6----||--x-----4-----4--4--------4--4--4--4-(4)-4--4----||-------------------------------------------------|
|
|-----------------0--------------------------0----||--------5-----------5-----5-----------4----------||-----------6-----------6-----6-------------------||--6-----------6-----------------6----------------||-------------------------------------------------||-------------------------------------------------|
|
|-------12-------12-------12-------12-------12----||-12h14----12h14----12h14----12h14----12h14----12h||-------------------------------------------------||-------------------------------------------------||-------------------------------------------------||-------------------------------------------------|
A | | | | | | | | | | | | / / / / / / / / / / / /
|--x-----5-----5--5--------5--5--5-(5)-5--5--5-||--x-----5-----5--5--------5--5--5-(5)-5--5--5-||--x-----6-----6--6--------6--6--6-(6)-6--6--6-||--x-----7-----7--7--------7--7--7-(7)-7--7--7-||--x-----7-----7--7--------7--7--7-(7)-7--7--7-||----------------------------------------------|
|
|-----------------0--------------------------0-||--------5-----------5-----5-----------4-------||-----------6-----------6-----6----------------||--7-----------7-----------------7-------------||----------------------------------------------||----------------------------------------------|
|
|----12-------12-------12-------12-------12-14-||-14----12h14----12h14----12h14----12h14-------||----------------------------------------------||----------------------------------------------||----------------------------------------------||----------------------------------------------|
Aopen Asus2 AVI E5/B AVI E5/B Aopen Asus2 Aopen Asus2 Aopen | | | | | | | | | | | | | | | | | / / x / / / / / / / / x / / / / /
|---------x--0----0-0------0--0--0--0-(0)-0--0-|-------------------------------------------------------------||---------x--2----2-2------2--2--2--2-(2)-2--2-|---------x--2---(2)-0----------------2------0--------(0)---2-||---------x--3----3-3------3--3--3--3-(3)-3--3-|---------x--2---(2)-2----------------2------2--------(2)---2-||---------x--4----4-4------4--4--4--4-(4)-4--4-|---------x--2---(2)-2----------------2------2--------(2)---2-||---------x--4----4-4------4--4--4--4-(4)-4--4-|---------x--0---(0)-0----------------0------0--------(0)---0-||----------------------------------------------|-------------------------------------------------------------|
|
|-------------------0------------------0-------|--------------------0--------------------------------------0-||------------2--------2----2-----------------2-|------------5-----------------5------5----------------5------||--------------3--------3-----3----------------|--------------6------------------6------6----------------6---||---------4-------4--------------4-------------|---------7-------7------------------------7------------------||----------------------------------------------|-------------------------------------------------------------||----------------------------------------------|-------------------------------------------------------------|
|
| ~~|-14b16-(14)-----14-------12h14p12----12----12-|-14b16-(14)-----------14b16-(14)---(14)---x---14b16-(14)-----||----------------------------------14----------|-------------------------------------------------------------||----------------------------------------------|-------------------------------------------------------------||----------------------------------------------|-------------------------------------------------------------||----------------------------------------------|-------------------------------------------------------------||----------------------------------------------|-------------------------------------------------------------|
Asus2 AVI Asus2 | | | | | | | | | | x / / x / / / o o o
|---------------------------------------------------||-x----------2----(2)-0---------------0-------------||-x----------2----(2)-2---------2-----2-------------||-x----------2----(2)-2---------2-----2-----------9-||-x----------0----(0)-0---------0-----0-----9-11----||---------------------------------------------------|
|
|---------------------0---------------------------0-||------------5------------5-----5-----------5-------||---------------6------------6-----6-----------6----||-7----------------7------------------7-------------||---------------------------------------------------||---------------------------------------------------|
|
|---------------------------------------------------||-x-14b16==(14)r========(14)---12h14p12----12-------||---------------------------------------14-------14-||---------------------------------------------------||---------------------------------------------------||---------------------------------------------------|
Out-Chorus Repeat 1 C#m | | | | | | | | | | | | | / / / / / / / / / / / / /
|--x----4----4-4-----4-4--4--4-(4)--4--4------------||--x----5----5-5-----5-5--5--5-(5)--5--5------------||--x----6----6-6-----6-6--6--6-(6)--6--6------------||--x----6----6-6-----6-6--6--6-(6)--6--6------------||--x----4----4-4-----4-4--4--4-(4)--4--4------------||---------------------------------------------------|
|
|--------------0-----------------------0------------||-------5--------5---5----------4-------------------||---------6--------6---6----------------------------||--6---------6------------6-------------------------||---------------------------------------------------||---------------------------------------------------|
|
| ~~~~~~~~~|---------------------------------------------------||------------------------17h19p17-----17-19b21-(19)-||-16h18-----18---------------------18---------------||---------------------------------------------------||---------------------------------------------------||---------------------------------------------------|
A | | | | | | | | | | | | / / / / / / / / / / / /
|---x--5-----------5--5--------------5--5-5-(5)---------5--5-5----||---x--5-----------5--5--------------5--5-5-(5)---------5--5-5----||---x--6-----------6--6--------------6--6-6-(6)---------6--6-6----||---x--7-----------7--7--------------7--7-7-(7)---------7--7-7----||---x--7-----------7--7--------------7--7-7-(7)---------7--7-7----||-----------------------------------------------------------------|
|
|---------------------0--------------------------------------0----||------5----------------5------------5------------------4---------||--------6-----------------6------------6-------------------------||---7--------------7----------------------7-----------------------||-----------------------------------------------------------------||-----------------------------------------------------------------|
|
|-------------------------19----------------19-----------------19-||-(19)-----19b21-(19)--------19b21-(19)---------19b21-(19)--------||-----------------------------------------------------------------||-----------------------------------------------------------------||-----------------------------------------------------------------||-----------------------------------------------------------------|
C#m | | | | | | | | | | | | | / / / / / / / / / / / / /
|---------x--4----4--4--------4-4-4-4--------(4)-4-4----||---------x--5----5--5--------5-5-5-5--------(5)-5-5----||---------x--6----6--6--------6-6-6-6--------(6)-6-6----||---------x--6----6--6--------6-6-6-6--------(6)-6-6----||---------x--4----4--4--------4-4-4-4--------(4)-4-4----||-------------------------------------------------------|
|
|--------------------0-----------------------------0----||------------5----------5-----5---------------4---------||--------------6-----------6----6-----------------------||---------6-------6---------------6---------------------||-------------------------------------------------------||-------------------------------------------------------|
|
| ~~|----------------------------------------------------19-||-19b21-(19)-----17h19p17----17-------19b21-(19)--------||-------------------------18----------------------------||-------------------------------------------------------||-------------------------------------------------------||-------------------------------------------------------|
A | | | | | | | | | | | | / / / / / / / / / / / /
|---------x--5----5--5--------5-5-5-(5)---------5--5-5-----||---------x--5----5--5--------5-5-5-(5)---------5--5-5-----||---------x--6----6--6--------6-6-6-(6)---------6--6-6-----||---------x--7----7--7--------7-7-7-(7)---------7--7-7-----||---------x--7----7--7--------7-7-7-(7)---------7--7-7-----||----------------------------------------------------------|
|
|--------------------0-------------------------------0-----||------------5----------5-----5-----------------4----------||--------------6-----------6----6--------------------------||---------7-------7---------------7------------------------||----------------------------------------------------------||----------------------------------------------------------|
|
| ~~|------------------------------------------------------19--||-19b21-(19)-----17h19p17----17---------19b21-(19)---------||-------------------------18-------------------------------||----------------------------------------------------------||----------------------------------------------------------||----------------------------------------------------------|
C#m | | | | | | | | | | | | | / / / / / / / / / / / / /
|---------x--4----4--4--------4--4--4--4-(4)-4--4----||---------x--5----5--5--------5--5--5--5-(5)-5--5----||---------x--6----6--6--------6--6--6--6-(6)-6--6----||---------x--6----6--6--------6--6--6--6-(6)-6--6----||---------x--4----4--4--------4--4--4--4-(4)-4--4----||----------------------------------------------------|
|
|--------------------0--------------------------0----||------------5----------5-----5-----------4----------||--------------6-----------6-----6-------------------||---------6-------6-----------------6----------------||----------------------------------------------------||----------------------------------------------------|
|
|----------------------------------------------------||-19b21-(19)-----17h19p17----17h19p17----17h19p17----||-------------------------18----------18----------18-||----------------------------------------------------||----------------------------------------------------||----------------------------------------------------|
A | | | | | | | | | | | | / / / / / / / / / / / /
|--x-----5-----5--5--------5--5--5-(5)--5--5--5-----||--x-----5-----5--5--------5--5--5-(5)--5--5--5-----||--x-----6-----6--6--------6--6--6-(6)--6--6--6-----||--x-----7-----7--7--------7--7--7-(7)--7--7--7-----||--x-----7-----7--7--------7--7--7-(7)--7--7--7-----||---------------------------------------------------|
|
|-----------------0---------------------------0-----||--------5-----------5-----5------------4-----------||-----------6-----------6-----6---------------------||--7-----------7-----------------7------------------||---------------------------------------------------||---------------------------------------------------|
|
|---------------------------------------------------||-17h19p17----17h19p17----17h19p17-----17h19p17-----||----------18----------18----------18-----------18--||---------------------------------------------------||---------------------------------------------------||---------------------------------------------------|
Aopen Asus2 AVI E5/B AVI E5/B Aopen Asus2 Aopen Asus2 Aopen | | | | | | | | | | | | | | | | | / / x / / / / / / / / x / / / / /
|-x--0----0--0------0-0-0--0--(0)-0--0-|------------------------------------------------||-x--2----2--2------2-2-2--2--(2)-2--2-|-x---------2-----(2)--0------2------0--(0)----2-||-x--3----3--3------3-3-3--3--(3)-3--3-|-x---------2-----(2)--2------2------2--(2)----2-||-x--4----4--4------4-4-4--4--(4)-4--4-|-x---------2-----(2)--2------2------2--(2)----2-||-x--4----4--4------4-4-4--4--(4)-4--4-|-x---------0-----(0)--0------0------0--(0)----0-||--------------------------------------|------------------------------------------------|
|
|------------0-----------------0-------|----------------------0-----------------------0-||----2---------2----2----------------2-|-----------5------------5----5----------5-------||------3---------3----3----------------|--------------6-----------6----6-----------6----||-4-------4-------------4--------------|-7----------------7--------------7--------------||--------------------------------------|------------------------------------------------||--------------------------------------|------------------------------------------------|
|
| ~~~~~~~~~~~~~~~~~~~~~~~~~~~~~~~~~~ ~~|--------------------------------------|------------------------------------------------||---17---17-17-----17-----17-(17)---17-|---19b21-(19)---(19)-19-----17---------------17-||--------------------------------------|-----------------------------------18-(18)------||--------------------------------------|------------------------------------------------||--------------------------------------|------------------------------------------------||--------------------------------------|------------------------------------------------|
Asus2 AVI Asus2 | | | | | | | | | | x / / x / / / o o o
|----------------------------------------------------||---------x--2----(2)--0----------0------------------||---------x--2----(2)--2------2---2------------------||---------x--2----(2)--2------2---2-------------9----||---------x--0----(0)--0------0---0------9--11-------||----------------------------------------------------|
|
|----------------------0------------------------0----||------------5-----------5----5----------5-----------||--------------6-----------6----6------------6-------||---------7--------7--------------7------------------||----------------------------------------------------||----------------------------------------------------|
|
| ~~|----------------------------------------------------||-19b21-(19)-----(19)-19-----17----------------17----||-----------------------------------18-(18)----------||----------------------------------------------------||----------------------------------------------------||----------------------------------------------------|
Out-Chorus Repeat 2 C#m | | | | | | | | | | | | | / / / / / / / / / / / / /
|---------x--4-----------4--4-------4--4---------4--4---------(4)-4---4--||---------x--5-----------5--5-------5--5---------5--5---------(5)-5---5--||---------x--6-----------6--6-------6--6---------6--6---------(6)-6---6--||---------x--6-----------6--6-------6--6---------6--6---------(6)-6---6--||---------x--4-----------4--4-------4--4---------4--4---------(4)-4---4--||------------------------------------------------------------------------|
|
|---------------------------0-----------------------------------------0--||------------5----------------5-----5--------------------------4---------||--------------6----------------6------6---------------------------------||---------6--------------6-----------------------6-----------------------||------------------------------------------------------------------------||------------------------------------------------------------------------|
|
|-19b21-(19)-----19b21-(19)-------(19)---19b21-(19)---19b21==(19)r==(19)-||------------------------------------------------------------------------||------------------------------------------------------------------------||------------------------------------------------------------------------||------------------------------------------------------------------------||------------------------------------------------------------------------|
A | | | | | | | | | | | | / / / / / / / / / / / /
|--x-5---5-5------5--5--5-(5)--5--5--5----||--x-5---5-5------5--5--5-(5)--5--5--5----||--x-6---6-6------6--6--6-(6)--6--6--6----||--x-7---7-7------7--7--7-(7)--7--7--7----||--x-7---7-7------7--7--7-(7)--7--7--7----||-----------------------------------------|
|
|----------0-------------------------0----||----5-------5----5------------4----------||------6-------6-----6--------------------||--7-----7--------------7-----------------||-----------------------------------------||-----------------------------------------|
|
| ~~|-----------------------------------------||-17-------------17h19p17-----------17----||-------------------------18--16h18----18-||-----------------------------------------||-----------------------------------------||-----------------------------------------|
C#m | | | | | | | | | | | | | / / / / / / / / / / / / /
|---------x--4-----------4--4-------4--4---------4--4---------(4)-4---4--||---------x--5-----------5--5-------5--5---------5--5---------(5)-5---5--||---------x--6-----------6--6-------6--6---------6--6---------(6)-6---6--||---------x--6-----------6--6-------6--6---------6--6---------(6)-6---6--||---------x--4-----------4--4-------4--4---------4--4---------(4)-4---4--||------------------------------------------------------------------------|
|
|---------------------------0-----------------------------------------0--||------------5----------------5-----5--------------------------4---------||--------------6----------------6------6---------------------------------||---------6--------------6-----------------------6-----------------------||------------------------------------------------------------------------||------------------------------------------------------------------------|
|
|-19b21-(19)-----19b21-(19)-------(19)---19b21-(19)---19b21==(19)r==(19)-||------------------------------------------------------------------------||------------------------------------------------------------------------||------------------------------------------------------------------------||------------------------------------------------------------------------||------------------------------------------------------------------------|
A | | | | | | | | | | | | / / / / / / / / / / / /
|--x-5----5--5--------5--5--5-(5)--5-5--5--||--x-5----5--5--------5--5--5-(5)--5-5--5--||--x-6----6--6--------6--6--6-(6)--6-6--6--||--x-7----7--7--------7--7--7-(7)--7-7--7--||--x-7----7--7--------7--7--7-(7)--7-7--7--||------------------------------------------|
|
|------------0--------------------------0--||----5----------5-----5------------4-------||------6-----------6-----6-----------------||--7------7-----------------7--------------||------------------------------------------||------------------------------------------|
|
| ~~|------------------------------------------||-17-----17h19p17----17h19p17-----17-------||-----------------18----------18-------18--||------------------------------------------||------------------------------------------||------------------------------------------|
C#m | | | | | | | | | | | | | / / / / / / / / / / / / /
|---------x--4-----------4--4-------4--4---------4--4---------(4)-4---4--||---------x--5-----------5--5-------5--5---------5--5---------(5)-5---5--||---------x--6-----------6--6-------6--6---------6--6---------(6)-6---6--||---------x--6-----------6--6-------6--6---------6--6---------(6)-6---6--||---------x--4-----------4--4-------4--4---------4--4---------(4)-4---4--||------------------------------------------------------------------------|
|
|---------------------------0-----------------------------------------0--||------------5----------------5-----5--------------------------4---------||--------------6----------------6------6---------------------------------||---------6--------------6-----------------------6-----------------------||------------------------------------------------------------------------||------------------------------------------------------------------------|
|
|-19b21-(19)-----19b21-(19)-------(19)---19b21-(19)---19b21==(19)r==(19)-||------------------------------------------------------------------------||------------------------------------------------------------------------||------------------------------------------------------------------------||------------------------------------------------------------------------||------------------------------------------------------------------------|
A | | | | | | | | | | | | / / / / / / / / / / / /
|--x-5---5-5------5-5-5-(5)--5-5--5--||--x-5---5-5------5-5-5-(5)--5-5--5--||--x-6---6-6------6-6-6-(6)--6-6--6--||--x-7---7-7------7-7-7-(7)--7-7--7--||--x-7---7-7------7-7-7-(7)--7-7--7--||------------------------------------|
|
|----------0----------------------0--||----5-------5----5----------4-------||------6-------6----6----------------||--7-----7------------7--------------||------------------------------------||------------------------------------|
|
| ~~~~~~~~~~~~~~~~~|------------------------------------||-17-------------17---------17h==19--||------------------------------------||------------------------------------||------------------------------------||------------------------------------|
Aopen Asus2 AVI E5/B AVI E5/B Aopen Asus2 Aopen Asus2 Aopen | | | | | | | | | | | | | | | | | / / x / / / / / / / / x / / / / /
|--x-----0-----0--0--------0--0--0--0-(0)-0--0----|--------------------------------------------||--x-----2-----2--2--------2--2--2--2-(2)-2--2----|--x--2----(2)--0--------2--------0-(0)----2-||--x-----3-----3--3--------3--3--3--3-(3)-3--3----|--x--2----(2)--2--------2--------2-(2)----2-||--x-----4-----4--4--------4--4--4--4-(4)-4--4----|--x--2----(2)--2--------2--------2-(2)----2-||--x-----4-----4--4--------4--4--4--4-(4)-4--4----|--x--0----(0)--0--------0--------0-(0)----0-||-------------------------------------------------|--------------------------------------------|
|
|-----------------0--------------------0----------|---------------0--------------------------0-||--------2-----------2-----2-----------------2----|-----5------------5-----5-----------5-------||-----------3-----------3-----3-------------------|--------6------------6-----6------------6---||--4-----------4-----------------4----------------|--7--------7------------------7-------------||-------------------------------------------------|--------------------------------------------||-------------------------------------------------|--------------------------------------------|
| |
~~|-------------------------------------------------|--------------------------------------------||-------17-------17-------17-------17-------17----|----------17--------17-------17--------17---||-16h18----16h18----16h18----16h18----16h18----16h|=18-16h18-----16h18----16h18----16h18-------||-------------------------------------------------|--------------------------------------------||-------------------------------------------------|--------------------------------------------||-------------------------------------------------|--------------------------------------------|
Asus2 AVI Asus2 | | | | | | | | | | x / / x / / / o o o
|---------------------------------------------------*||-x---------2-----(2)--0------------0---------------*||-x---------2-----(2)--2------2-----2---------------*||-x---------2-----(2)--2------2-----2-----------9---*||-x---------0-----(0)--0------0-----0-----9-11------*||---------------------------------------------------*|
|
|----------------------0------------------------0---*||-----------5------------5----5-----------5---------*||--------------6-----------6-----6-----------6------*||-7----------------7----------------7---------------*||---------------------------------------------------*||---------------------------------------------------*|
|
|---------------------------------------------------*||---19b21-(19)---(19)-19-----17h19p17----17---------*||-------------------------------------18-------18---*||---------------------------------------------------*||---------------------------------------------------*||---------------------------------------------------*|
Tablature Legend ---------------- h - hammer-on p - pull-off b - bend pb - pre-bend r - bend release (if no number after the r, then release immediately) /\ - slide into or out of (from/to "nowhere") s - legato slide S - shift slide - natural harmonic [n] - artificial harmonic n(n) - tapped harmonic ~ - vibrato tr - trill T - tap TP - trem. picking PM - palm muting \n/ - tremolo bar dip; n = amount to dip \n - tremolo bar down n/ - tremolo bar up /n\ - tremolo bar inverted dip = - hold bend; also acts as connecting device for hammers/pulls <> - volume swell (louder/softer) x - on rhythm slash represents muted slash o - on rhythm slash represents single note slash Misc Legend ----------- | - bar || - double bar ||o - repeat start o|| - repeat end *| - double bar (ending) : - bar (freetime) $ - Segno & - Coda Tempo markers - = BPM(8/16=s8/s16), where s8 = swing 8ths, s16 = swing 16ths
Tap to rate this tab
 
# A B C D E F G H I J K L M N O P Q R S T U V W X Y Z