Doors - Ship Of Fools tab

Yngwie Malmsteen
Ship Of Fools

IntroD#||-----17----17----17----17----13----13----13----13-|A#||--15----20----18----17----15----17----15----13----|F#||--------------------------------------------------|C#||--------------------------------------------------|G#||--------------------------------------------------|D#||--------------------------------------------------|
-----15----15----15----15----12----12----12----12-|--12----18----17----15----13----15----13----12----|--------------------------------------------------|--------------------------------------------------|--------------------------------------------------|--------------------------------------------------|
-----13-12-13-10-13----13----10----10----10----10-|--10----------------13----12----13----12----10----|--------------------------------------------------|--------------------------------------------------|--------------------------------------------------|--------------------------------------------------|
----12-10-12----12----12----12---12-------|--9----------13----12----10----9----10~---|------------------------------------------|------------------------------------------|------------------------------------------|------------------------------------------|
-----17----17----17----17----13----13----13----13-|--15----20----18----17----15----17----15----13----|--------------------------------------------------|--------------------------------------------------|--------------------------------------------------|--------------------------------------------------|
-----15----15----15----15----12----12----12----12-|--12----18----17----15----13----15----13----12----|--------------------------------------------------|--------------------------------------------------|--------------------------------------------------|--------------------------------------------------|
-----13-12-13-10-13----13----10----10----10----10-|--10----------------13----12----13----12----10----|--------------------------------------------------|--------------------------------------------------|--------------------------------------------------|--------------------------------------------------|
----12-10-12----12----12----12---12-------|---------------------|--9----------13----12----10----9----10~---|--9~-------21~-------|------------------------------------------|---------------------|------------------------------------------|---------------------|------------------------------------------|---------------------|------------------------------------------|---------------------|
---------------------------------|----------------------------------|---------------------------------|----------------------------------|---------------------------------|-------------7~-------------------|----10---9---7~--9~--7-9-10------|----10---9-------10~--9-10-9-7~---|--7----7---7---7---7--------8~---|--7----7---7---7----7-------------|---------------------------------|----------------------------------|
---------------------------------|----------------|---------------------------------|----------------|---------------------------------|----------------|----10---9---7~--9~--7-9-10------|----------------|--7----7---7---7---7--------9----|------8~---7~---|---------------------------------|----------------|
---------------------------------|----------------------------------|---------------------------------|----------------------------------|---------------------------------|-------------7~-------------------|----10---9---7~--9~--7-9-10------|----10---9-------10~--9-10-9-7~---|--0----7---7---7---7--------8~---|--7----7---7---7----7-------------|---------------------------------|----------------------------------|
---------------------------------|----------------|-------------------|---------------------------------|----------------|-------------------|---------------------------------|----------------|-------------------|----10---9---7~--9~--7-9-10------|----------------|-------------------|--7----7---7---7---7--------9~---|------8~---7~---|-------------------|---------------------------------|----------------|--5----------------|
--------------------|------------------|-------------------|------------------|--10----------------|------------------|--8----------------|------------------|--9-----------------|------------------|--7----------------|------------------|--7-----------------|------------------|--5----------------|------------------|--------------------|------------------|-------------------|------------------|--------------------|------------------|-------------------|------------------|
-------------------|-------------------|-------------------|--3----------------|--3----------------|--1----------------|
-----------------------------------------------------------------------------|-----------------------------------------------------------------------------|-----------------------------------------------------------------------------|-----------------------------------------------------------------------------|----------12-11-10-9-8-7-6-5-4-3-2-1-1-1-1-1-0-0-0-0-0-0-0-0-0-0-0-0-0-0-0-0-|-----------------------------------------------------------------------------|
-------------------|-------------------|-----0------0------0-------|-------------------|-------------------|-------6------6------------|-------------------|-------------------|---------7------7----------|--5----------------|--5----------------|---------------------------|--3----------------|--5----------------|--5---------------------5--|--3----------------|--3----------------|---------------------------|
-----0------0------0-------|-----0------0-----------|-----------------------|-------6------6------------|-------3------3~--------|-----------------------|---------4------4----------|---------4--------------|-----------------------|---------------------------|------------------------|--3---3---3----3---3~--|--3---------------------3--|--2---------------------|--1---1---1----1---1---|---------------------------|------------------------|--1---1---1----1---1---|
---------------------------------|----------------------------------|---------------------------------|----------------------------------|---------------------------------|-------------7~-------------------|----10---9---7~--9~--7-9-10------|----10---9-------10~--9-10-9-7~---|--7----7---7---7---7--------8~---|--7----7---7---7----7-------------|---------------------------------|----------------------------------|
---------------------------------|----------------|---------------------------------|----------------|---------------------------------|----------------|----10---9---7~--9~--7-9-10------|----------------|--7----7---7---7---7--------9~---|------8~---7~---|---------------------------------|------8----7----|
---------------------------------|----------------------------------|---------------------------------|----------------------------------|---------------------------------|-------------7~-------------------|----10---9---7~--9~--7-9-10------|----10---9-------10~--9-10-9-7~---|--0----7---7---7---7--------8~---|--7----7---7---7----7-------------|---------------------------------|----------------------------------|
---------------------------------|----------------|-------------------|---------------------------------|----------------|-------------------|---------------------------------|----------------|-------------------|----10---9---7~--9~--7-9-10------|----------------|-------------------|--7----7---7---7---7--------9~---|------8~---7~---|-------------------|---------------------------------|----------------|--5----------------|
--5~---------------|------------------|--3----------------|------------------|--5----------------|------------------|--3----------------|------------------|--5----------------|------------------|--4----------------|------------------|--7----------------|------------------|--5----------------|------------------|-------------------|------------------|-------------------|------------------|-------------------|------------------|-------------------|------------------|
--1----------------|---------------------|-------------------|--1----------------|---------------------|-------------------|--2----------------|---------------------|-------------------|--3----------------|-----------------3---|--5----------------|-------------------|---------0---3-------|--3----------------|-------------------|---------------------|--3----------------|
-------------------|-----0------0------0-------|-----0------0------0-------|-------------------|-------6------6------------|-------6------6------------|-------------------|---------7------7----------|---------4------4----------|--5----------------|---------------------------|---------------------------|--5----------------|--5---------------------5--|--3---------------------3--|--3----------------|---------------------------|---------------------------|
-----0------0-----------|-----------------------|-------3------3~--------|-----------------------|---------4--------------|-----------------------|------------------------|--3---3---3----3---3---|--2---------------------|--1---1---1----1---1---|------------------------|--1---1---1----1---1---|
---------------------------------|----------------------------------|---------------------------------|----------------------------------|---------------------------------|-------------7~-------------------|----10---9---7~--9~--7-9-10------|----10---9-------10~--9-10-9-7~---|--7----7---7---7---7--------8~---|--7----7---7---7----7-------------|---------------------------------|----------------------------------|
---------------------------------|----------------|---------------------------------|----------------|---------------------------------|----------------|----10---9---7~--9~--7-9-10------|----------------|--7----7---7---7---7--------9~---|------8~---7~---|---------------------------------|----------------|
---------------------------------|----------------------------------|---------------------------------|----------------------------------|---------------------------------|-------------7~-------------------|----10---9---7~--9~--7-9-10------|----10---9-------10~--9-10-9-7~---|--0----7---7---7---7--------8~---|--7----7---7---7----7-------------|---------------------------------|----------------------------------|
---------------------------------|----------------|---------------------------------|----------------|---------------------------------|----------------|----10---9---7~--9~--7-9-10------|----------------|--7----7---7---7---7--------9~---|------8~---7~---|---------------------------------|----------------|
--------------12----------------12----------------12-17~-------|-----------13----13----------13----13----------13--------------|--------14----------14----14----------14----14-----------------|-----14----------------14----------------14--------------------|--12-----------------------------------------------------------|---------------------------------------------------------------|
-----17----17----17----17----13----13----13----13-|--15----20----18----17----15----17----15----13----|--------------------------------------------------|--------------------------------------------------|--------------------------------------------------|--------------------------------------------------|
-----15----15----15----15----12----12----12----12-|--12----18----17----15----13----15----13----12----|--------------------------------------------------|--------------------------------------------------|--------------------------------------------------|--------------------------------------------------|
-----13-12-13-10-13----13----10----10----10----10-|--10----------------13----12----13----12----10----|--------------------------------------------------|--------------------------------------------------|--------------------------------------------------|--------------------------------------------------|
----12-10-12----12----12----12---12-------|--9----------13----12----10----9----10~---|------------------------------------------|------------------------------------------|------------------------------------------|------------------------------------------|
-----17----17----17----17----13----13----13----13-|--15----20----18----17----15----17----15----13----|--------------------------------------------------|--------------------------------------------------|--------------------------------------------------|--------------------------------------------------|
-----15----15----15----15----12----12----12----12-|--12----18----17----15----13----15----13----12----|--------------------------------------------------|--------------------------------------------------|--------------------------------------------------|--------------------------------------------------|
-----13-12-13-10-13----13----10----10----10----10-|--10----------------13----12----13----12----10----|--------------------------------------------------|--------------------------------------------------|--------------------------------------------------|--------------------------------------------------|
----12-10-12----12----12----12---12-17~---|------|------|------|------|------|--9----------13----12----10----9----------|------|------|------|------|------|------------------------------------------|------|------|------|------|------|------------------------------------------|------|------|------|------|------|------------------------------------------|------|------|------|------|------|------------------------------------------|------|------|------|------|------|
------|------|------|------|------|------------------------|------|------|------|------|------|--12~---12~---9~---7~---|------|------|------|------|------|------------------------|------|------|------|------|------|------------------------|------|------|------|------|------|------------------------|------|------|------|------|------|------------------------|
-------------------------|--------------------|------|------|------|------|--9~---7~---5~---12~-12~-|------14~-----------|------|------|------|------|-------------------------|--------------------|------|------|------|------|-------------------------|--------------------|------|------|------|------|-------------------------|--------------------|------|------|------|------|-------------------------|--------------------|------|------|------|------|
------|-----0------0------0-------|-----0------0------0-------|------|-------6------6------------|-------6------6------------|------|---------7------7----------|---------4------4----------|------|---------------------------|---------------------------|------|--5---------------------5--|--3---------------------3--|------|---------------------------|---------------------------|
-----0------0-----------|-----------------------|-------3------3~--------|-----------------------|---------4--------------|-----------------------|------------------------|--3---3---3----3---3---|--2---------------------|--1---1---1----1---1---|------------------------|--1---1---1----1---1---|
---------------------------------|----------------------------------|---------------------------------|----------------------------------|---------------------------------|-------------7~-------------------|----10---9---7~--9~--7-9-10------|----10---9-------10~--9-10-9-7~---|--7----7---7---7---7--------8~---|--7----7---7---7----7-------------|---------------------------------|----------------------------------|
---------------------------------|----------------|---------------------------------|----------------|---------------------------------|----------------|----10---9---7~--9~--7-9-10------|----------------|--7----7---7---7---7--------9----|------8~---7~---|---------------------------------|----------------|
---------------------------------|----------------------------------|---------------------------------|----------------------------------|---------------------------------|-------------7~-------------------|----10---9---7~--9~--7-9-10------|----10---9-------10~--9-10-9-7~---|--0----7---7---7---7--------8~---|--7----7---7---7----7-------------|---------------------------------|----------------------------------|
---------------------------------|----------------|---------------------------------|----------------|---------------------------------|----------------|----10---9---7~--9~--7-9-10------|----------------|--7----7---7---7---7--------9~---|------8~---7~---|---------------------------------|----------------|
---------------------------------|----------------------------------|---------------------------------|----------------------------------|---------------------------------|-------------7~-------------------|----10---9---7~--9~--7-9-10------|----10---9-------10~--9-10-9-7~---|--0----7---7---7---7--------8~---|--7----7---7---7----7-------------|---------------------------------|----------------------------------|
---------------------------------|----------------|---------------------------------|----------------|---------------------------------|----------------|----10---9---7~--9~--7-9-10------|----------------|--7----7---7---7---7--------9~---|------8~---7~---|---------------------------------|----------------|
---------------------------------|----------------------------------|---------------------------------|----------------------------------|---------------------------------|-------------7~-------------------|----10---9---7~--9~--7-9-10------|----10---9-------10~--9-10-9-7~---|--0----7---7---7---7--------8~---|--7----7---7---7----7-------------|---------------------------------|----------------------------------|
---------------------------------|----------------|---------------------------------|----------------|---------------------------------|----------------|----10---9---7~--9~--7-9-10------|----------------|--7----7---7---7---7--------9~---|------8~---7~---|---------------------------------|----------------|
--------------12----------------12----------------12-17~-------|-----------13----13----------13----13----------13--------------|--------14----------14----14----------14----14-----------------|-----14----------------14----------------14--------------------|--12-----------------------------------------------------------|---------------------------------------------------------------|
-----17----17----17----17----13----13----13----13-|--15----20----18----17----15----17----15----13----|--------------------------------------------------|--------------------------------------------------|--------------------------------------------------|--------------------------------------------------|
-----15----15----15----15----12----12----12----12-|--12----18----17----15----13----15----13----12----|--------------------------------------------------|--------------------------------------------------|--------------------------------------------------|--------------------------------------------------|
-----13-12-13-10-13----13----10----10----10----10-|--10----------------13----12----13----12----10----|--------------------------------------------------|--------------------------------------------------|--------------------------------------------------|--------------------------------------------------|
----12-10-12----12----12----12---12-17~---|--9----------13----12----10----9----------|------------------------------------------|------------------------------------------|------------------------------------------|------------------------------------------|
-----17----17----17----17----13----13----13----13-|--15----20----18----17----15----17----15----13----|--------------------------------------------------|--------------------------------------------------|--------------------------------------------------|--------------------------------------------------|
-----15----15----15----15----12----12----12----12-|--12----18----17----15----13----15----13----12----|--------------------------------------------------|--------------------------------------------------|--------------------------------------------------|--------------------------------------------------|
-----13-12-13-10-13----13----10----10----10----10-|--10----------------13----12----13----12----10----|--------------------------------------------------|--------------------------------------------------|--------------------------------------------------|--------------------------------------------------|
----12-10-12----12----12----12---12-------------------|--9----------13----12----10----9----10-10-10-10-10-10-|------------------------------------------------------|------------------------------------------------------|------------------------------------------------------|------------------------------------------------------|
-----------12----------------------------------12-------12-------------------|--------13----15-13-15-13-12-15-13-12-------13----15-13----15-13-12-15-13-12-|-----14----------------------------------14----------------------------------|--14----------------------------------14-------------------------------------|-----------------------------------------------------------------------------|-----------------------------------------------------------------------------|
-----------12-------------------------12------------17~---|--------13----15-13-15-13-12-15-13-12----15-13-12---------|-----14---------------------------------------------------|--14------------------------------------------------------|----------------------------------------------------------|----------------------------------------------------------|
--17~---------------||--------------------||--------------------||--------------------||--------------------||--------------------||
Tap to rate this tab
 
# A B C D E F G H I J K L M N O P Q R S T U V W X Y Z