Doors - People Are Strange tab

Artist: The Doors
Song: People Are Strange
Album: Strange Days
Tuning: Standard (EADGBE)

LEGEND:

h: hammer on

INTRO:

-----|-----|-----|-----|2-0--|----3|
-------------|-------------|------0------|----2--------|--2-----2-1-0|0------------|
-------------|-------------|----2-0------|--2----------|0-------2-1-0|-------------|
-------------|-------------|----2-0------|--2----------|0-------0h1h2|-------------|
-------------|-------------|-------------|----2--------|--2-----2-0--|2-----0-----3|
Repeat the above once. MAIN RIFF: (played at 1:30 on the timer)
-------------------------|------------10-12-10-----|9-11-9-12-9----------12-9|-------------------------|-------------------------|-------------------------|
------------------------|10-12-10----------------|---------12-9-11-12-11-9|------------------------|------------------------|------------------------|
-------------------------|------------10-12-10-----|9-11-9-12-9----------12-9|-------------------------|-------------------------|-------------------------|
-------------------------|10-12-10---------------12|---------12-9-11-12-11---|-------------------------|-------------------------|-------------------------|
The above riff should end at 1:46 on the timer. OUTRO: The outro is a B7 chord, like so: -2| -0| -2| -1| -2| --| Push down slightly on the whammy bar when playing this chord. e-mail: kingtommyboy@hotmail.com
Tap to rate this tab
 
# A B C D E F G H I J K L M N O P Q R S T U V W X Y Z