Dover - Devil Came To Me tab

In this song, there are a lot of diferents rythms, and i couldn't put but it's difficult 
write it, then , to play it well you must listen the song...i hope you like it!! :-)

Legend:
/:up slide
\:down slide
a:accent(in the chord)
h:hammer-on

Intro:|------------------------------------||------------------------------------||------------------------------------||--7-7-7--8-8\5--5/7-----------------| x 4|--7-7-7--8-8\5--5/7-----------------||--5-5-5--6-6\3--3/5-----------------|
|-------------------------------||-------------------------------||-------------------------------||--a7-7-7--a7-7-7--a7-7---------| x2|--a7-7-7--a7-7-7--a7-7---------||--a5-5-5--a5-5-5--a5-5---------|
|-------------------------------||-------------------------------||--a7-7-7--a7-7-7--a7-7---------||--a7-7-7--a7-7-7--a7-7---------| x2|--a5-5-5--a5-5-5--a5-5---------||-------------------------------|
Verse:
|--------------------------------||--------------------------------||--7-------10--------------------||--7---8---10---10---------------| x2|--5---8----8---10---------------||------6---------8---------------|
|----------------------------------||----------------------------------||--7-------10--------10------------||--7---8---10---10---10---10-------| x2|--5---8----8---10----8---10-------||------6---------8---------8-------|
Solo:e|--------------------------------------------------|B|--------------------------------------------------|G|----------10---------10-----10-------9--10--9-----| x2D|------12------10--12-----10-------10--------------|A|--------------------------------------------------|E|--------------------------------------------------|
Verse:
|--------------------------------||--------------------------------||--7-------10--------------------||--7---8---10---10---------------| x2|--5---8----8---10---------------||------6---------8---------------|
|----------------------------------||----------------------------------||--7-------10--------10------------||--7---8---10---10---10---10-------| x2|--5---8----8---10----8---10-------||------6---------8---------8-------|
Pre chorus: vey fast
|-------------------------------||-------------------------------||-------------------------------||--a7-7-7--a7-7-7--a7-7---------||--a7-7-7--a7-7-7--a7-7---------||--a5-5-5--a5-5-5--a5-5---------|
chorus:
|------------------------------||------------------------------||-------10--------7------------| x2|---8---10---10---7---8--------||---8----8---10---5---8--------||---6---------8-------6--------|
bridge 1:
|----------------------------------||----------------------------------||--------7-----10------7-----------||--8-8---7--8--10--10--7--5--7-----||--8-8---5--8---8--10--5--5--7-----||--6-6------6-------8-----3--5-----|
|----------------------------------||----------------------------------||--------10------7-----7-----------||--8-8---10--10--7--7--7-----------||--8-8----8--10--5--7--5-----------||--6-6--------8-----5--------------|
|----------------------------------||----------------------------------||-------10------7-----7------------||--8-8--10--10--7--5--7------------||--8-8---8--10--5--5--5------------||--6-6-------8-----3---------------|
|----------------------------------||----------------------------------||-------10-------------------------||--8-8--10--10---------------------||--8-8---8--10---------------------||--6-6-------8---------------------|
now, you play the chords of the verse:|-----------------------------------------------------------------||-----------------------------------------------------------------||--77777777------------1010101010101010---------------------------| x2|--77777777--88888888--1010101010101010--1010101010101010---------||--55555555--88888888----------88888888--1010101010101010---------||------------66666666----------------------------88888888---------|
Intro:|------------------------------------||------------------------------------||------------------------------------||--7-7-7--8-8\5--5/7-----------------| x 4|--7-7-7--8-8\5--5/7-----------------||--5-5-5--6-6\3--3/5-----------------|
|-------------------------------||-------------------------------||-------------------------------||--a7-7-7--a7-7-7--a7-7---------| x2|--a7-7-7--a7-7-7--a7-7---------||--a5-5-5--a5-5-5--a5-5---------|
|-------------------------------||-------------------------------||--a7-7-7--a7-7-7--a7-7---------||--a7-7-7--a7-7-7--a7-7---------| x2|--a5-5-5--a5-5-5--a5-5---------||-------------------------------|
Verse:
|--------------------------------||--------------------------------||--7-------10--------------------||--7---8---10---10---------------| x2|--5---8----8---10---------------||------6---------8---------------|
|----------------------------------||----------------------------------||--7-------10--------10------------||--7---8---10---10---10---10-------| x2|--5---8----8---10----8---10-------||------6---------8---------8-------|
Pre chorus: vey fast
|-------------------------------||-------------------------------||-------------------------------||--a7-7-7--a7-7-7--a7-7---------||--a7-7-7--a7-7-7--a7-7---------||--a5-5-5--a5-5-5--a5-5---------|
chorus:
|------------------------------||------------------------------||-------10--------7------------| x2|---8---10---10---7---8--------||---8----8---10---5---8--------||---6---------8-------6--------|
bridge 1:
|----------------------------------||----------------------------------||--------7-----10------7-----------||--8-8---7--8--10--10--7--5--7-----||--8-8---5--8---8--10--5--5--7-----||--6-6------6-------8-----3--5-----|
|----------------------------------||----------------------------------||--------10------7-----7-----------||--8-8---10--10--7--7--7-----------||--8-8----8--10--5--7--5-----------||--6-6--------8-----5--------------|
|----------------------------------||----------------------------------||-------10------7-----7------------||--8-8--10--10--7--5--7------------||--8-8---8--10--5--5--5------------||--6-6-------8-----3---------------|
|----------------------------------||----------------------------------||-------10-------------------------||--8-8--10--10---------------------||--8-8---8--10---------------------||--6-6-------8---------------------|
now, you play the chords of the verse:|-----------------------------------------------------------------||-----------------------------------------------------------------||--77777777------------1010101010101010---------------------------| x2|--77777777--88888888--1010101010101010--1010101010101010---------||--55555555--88888888----------88888888--1010101010101010---------||------------66666666----------------------------88888888---------|
Bridge 2:
|-----------------------------||-----------------------------||------7-------7--------------| x3|--7---7---7---7--------------||--7---5---7---5--------------||--5-------5------------------|
Pre chorus: vey fast
|-------------------------------||-------------------------------||-------------------------------||--a7-7-7--a7-7-7--a7-7---------||--a7-7-7--a7-7-7--a7-7---------||--a5-5-5--a5-5-5--a5-5---------|
chorus:
|------------------------------||------------------------------||-------10--------7------------| x2|---8---10---10---7---8--------||---8----8---10---5---8--------||---6---------8-------6--------|
bridge 1:
|----------------------------------||----------------------------------||--------7-----10------7-----------||--8-8---7--8--10--10--7--5--7-----||--8-8---5--8---8--10--5--5--7-----||--6-6------6-------8-----3--5-----|
|----------------------------------||----------------------------------||--------10------7-----7-----------||--8-8---10--10--7--7--7-----------||--8-8----8--10--5--7--5-----------||--6-6--------8-----5--------------|
|----------------------------------||----------------------------------||-------10------7-----7------------||--8-8--10--10--7--5--7------------||--8-8---8--10--5--5--5------------||--6-6-------8-----3---------------|
|----------------------------------||----------------------------------||-------10-------------------------||--8-8--10--10---------------------||--8-8---8--10---------------------||--6-6-------8---------------------|
now, you play the chords of the verse:|-----------------------------------------------------------------||-----------------------------------------------------------------||--77777777------------1010101010101010---------------------------| x2|--77777777--88888888--1010101010101010--1010101010101010---------||--55555555--88888888----------88888888--1010101010101010---------||------------66666666----------------------------88888888---------|
Solo:e|--------------------------------------------------|B|--------------------------------------------------|G|----------10---------10-----10-------9--10--9-----| x2D|------12------10--12-----10-------10--------------|A|--------------------------------------------------|E|--------------------------------------------------|
|---------------------------------------------------||---------------------------------------------------||-------------------------------9--10--9------------||----10h12---10h12---10h12--10------------12--------||---------------------------------------------------||---------------------------------------------------|
Tap to rate this tab
 
# A B C D E F G H I J K L M N O P Q R S T U V W X Y Z