Dr Hook – She Was Only Sixteen tab

This is my second time submitting a tab so if theres any mistakes e-mailed me
navz_0069@hotmail.co.uk... ^_^

Band/Artist: Dr. Hook
Song title: She was only sixteen
Tabbed by: Kirk Van Ryan (Navz)
6th of August 2005 (7:25pm)


She was only sixteen


Intro: (Little solo)

|------------------------------------||---13-------------------------------||--------15-14-12--------12b---------||------------------15----------10----||------------------------------------||------------------------------------|
Verse: F Bb C Bb She was only sixteen, only sixteen, F But I loved her so, Bb C She was too young to fall in love, Bb C F And I was too young to know, F We'd laugh and we'd sing,
|------------------------------------||------10--11--13--------------------||-------------------10---------------||------------------------------------||------------------------------------||------------------------------------|
Bb C Bb and do funny things, F And it made our hearts glow,
|------------------------------------||--------13(half bend)----10---------||--------13(half bend)----10---------||------------------------------------||------------------------------------||------------------------------------| Bb CShe was too young to fall in love, Bb C FAnd I was too young to know,
Bb F So why did I give my heart so fast, Bb F It never will happen again, Bb F But I was a mere child of sixteen, Bb(hold) C (hold) I've aged a year since then, F She was only sixteen,
|------------------------------------||------10--11--13--------------------||-------------------10---------------||------------------------------------||------------------------------------||------------------------------------|
Bb C only sixteen,
|------------------------------------||-------------13---------------------||----10h12---------------------------||------------------------------------||------------------------------------||------------------------------------|
Bb F Oh, with eyes that would glow,
|-----15--13-------------------------||--------------13--------------------||------------------------------------||------------------------------------||------------------------------------||------------------------------------|
Bb C She was too young to fall in love,
|------------------------------------||-------15b--------------------------||-------15b--------------------------||------------------------------------||------------------------------------||------------------------------------|
Bb C F And I was too young to know, Solo:
|-----------------------------------|---------------------------------||----10--11--13---------------------|---------------------------------||----------------10--12b--10--------|---13s15--13----17--13-----14-14-||-----------------------------10----|---15s17--15----19--15-----14-14-||-----------------------------------|---------------------------------||-----------------------------------|---------------------------------|
|---------------------------------------------------------------------||----10--11--13-----10--11--13---------------13-----------------------||-------------------------------10--12b--10---------------------------||---------------------------------------------------------------------||---------------------------------------------------------------------||---------------------------------------------------------------------|
|---------------------------------------------------------------------||----11--10---15--13----10--10----------------------------------------||-------------17--15----10--10----------------------------------------||---------------------------------------------------------------------||---------------------------------------------------------------------||---------------------------------------------------------------------|
Bb F So why did I give my heart so fast, Bb F It never will happen again, Bb F But I was a mere child of sixteen, Bb (hold) C (hold) I've aged a year since then, F Bb C Bb She was only sixteen, only sixteen,
|------------------------------------||------10--11--13------------13b-----||------------------10--12----13b-----||------------------------------------||------------------------------------||------------------------------------|
F Oh, but I loved that girl so,
|------------------------------------||----13b-----------------------------||---------13--13b--10-10-------------||------------------------------------||------------------------------------||------------------------------------|
Bb C She was too young to fall in love, Bb C F And I was too young to know.
|----------------------||----10--11--13--(3x)--||----------------------||----------------------||----------------------||----------------------|
Bb C Yeah she was too young to fall in love, Bb (hold) C (hold) And I was too young F (hold) Bb (hold) Bb7 (hold) F (hold) I was much too young to know... ahhhhhhhhhhhhhhhhhhhhhhhhhhhhhhhhhh ... here it is, and have fun! Tabbed by: Kirk Van Ryan Quilaquil
Please rate this tab:
x1.0