Dr Sin - Futebol Mulher E Rock N Roll tab

Tom: E
		


D#|----------------------|------------------------|-----------------------|A#|----------------------|------------------------|-----------------------|F#|----------------------|------------------------|-----------------------|C#|----------------------|------------2--3--------|-----------------------|G#|--2------2------2--2--|----2----2--0--1--2--3--|--3--2----2------2--2--|D#|--0------0------0--0--|----0----0--------0--1--|--1--0----0------0--0--|
-----------------------|------------------------|------------------------|-----------------------|------------------------|------------------------|-----------------------|------------------------|------------------------|------------------2----|------------------------|------------2--3--------|----2----2--5--2--0----|--2----x--2----x--2--2--|----2----2--0--1--2--3--|----0----0--3--0-------|--0----0--0----0--0--0--|----0----0--------0--1--|
------------------------|-----------------------||-------------------------|------------------------|-----------------------||-------------------------|------------------------|-----------------------||*------------------------|------------------------|------------------2----||*------------------------|--3--2----2----x--2--2--|----2----2--5--2--0----||---2----x--2----x--2--2--|--1--0----0----0--0--0--|----0----0--3--0-------||---0----0--0----0--0--0--|
------------------------|------------------------|-----------------------|------------------------|------------------------|-----------------------|------------------------|------------------------|-----------------------|------------2--3--------|------------------------|------------------2----|----2----2--0--1--2--3--|--3--2----2----x--2--2--|----2----2--5--2--0----|----0----0--------0--1--|--1--0----0----0--0--0--|----0----0--3--0-------|
------------------------|------------------------|------------------------|------------------------|------------------------|------------------------|------------------------|------------------------|------------------------|------------------------|------------2--3--------|------------------------|--2----x--2----x--2--2--|----2----2--0--1--2--3--|--3--2----2----x--2--2--|--0----0--0----0--0--0--|----0----0--------0--1--|--1--0----0----0--0--0--|
-----------------------|-------------------------|--------------------------|-----------------------|-------------------------|--------------------------|-----------------------|-------------------------|--------------------------|------------------2----|-------------------------|--------------------------|----2----2--5--2--0----|--2----2--2--2--2--2--2--|--2--2--2--2--2--2--2--2--|----0----0--3--0-------|--0----0--0--0--0--0--0--|--0--0--0--0--0--0--0--0--|
--------------------------|--------------------------|--------------------------|--------------------------|--------------------------|--------------------------|--------------------------|--------------------------|--5--5--5--5--5--5--5--5--|--5--5--5--5--5--5--5--5--|--3--3--3--3--3--3--3--3--|--3--3--3--3--3--3--3--3--|
--------------------------|--------------------------|--------------------------|--------------------------|--------------------------|--------------------------|--------------------------|--------------------------|--2--2--2--2--2--2--2--2--|--2--2--2--2--2--2--2--2--|--0--0--0--0--0--0--0--0--|--0--0--0--0--0--0--0--0--|
--------------------------|--------------------------|--------------------------|--------------------------|--------------------------|--------------------------|--------------------------|--------------------------|--5--5--5--5--5--5--5--5--|--5--5--5--5--5--5--5--5--|--3--3--3--3--3--3--3--3--|--3--3--3--3--3--3--3--3--|
-------------------------------|-------------------------------|-------------------------------|-------------------------------|-------------------------------|-------------------------------|--2----------2----------2------|--2----------2----------2------|--2----------2----------2------|--2----------2----------2------|-----0-0-0-0----0-0-0-0----0-0-|-----0-0-0-0----0-0-0-0----0-0-|
-------------------------------|-------------------------------|-------------------------------|-------------------------------|-------------------------------|-------------------------------|--5----------5----------5------|--5----------5----------5------|--5----------5----------5------|--5----------5----------5------|-----3-3-3-3----3-3-3-3----3-3-|-----3-3-3-3----3-3-3-3----3-3-|
-------------------------------|-------------------------------|-------------------------------|-------------------------------|-------------------------------|-------------------------------|--2----------2----------2------|--2----------2----------2------|--2----------2----------2------|--2----------2----------2------|-----0-0-0-0----0-0-0-0----0-0-|-----0-0-0-0----0-0-0-0----0-0-|
-------------------------------|-------------------------------|-------------------------------|-------------------------------|-------------------------------|-------------------------------|--5----------5----------5------|--5----------5----------5------|--5----------5----------5------|--5----------5----------5------|-----3-3-3-3----3-3-3-3----3-3-|-----3-3-3-3----3-3-3-3----3-3-|
------------------------|---------------------------|------------------------|------------------------|---------------------------|------------------------|------------------------|---------------------------|------------------------|------------------------|---------------------------|------------------------|--2--------5----3----5--|--2----5-----5----5--------|--2--------5----3----5--|--0----3h0-3----1----3--|--0----3h0-0-3--0-3-0-3b---|--0----3h0-3----1----3--|
--------------------||------------------------|------------------------|--------------------||------------------------|------------------------|-------------------*||------------------------|------------------------|-------------------*||------------------------|------------2--3--------|--2-----------------||--2----x--2----x--2--2--|----2----2--0--1--2--3--|--0-----------------||--0----0--0----0--0--0--|----0----0--------0--1--|
------------------------|-----------------------|------------------------|------------------------|-----------------------|------------------------|------------------------|-----------------------|------------------------|------------------------|------------------2----|------------------------|--3--2----2----x--2--2--|----2----2--5--2--0----|--2----x--2----x--2--2--|--1--0----0----0--0--0--|----0----0--3--0-------|--0----0--0----0--0--0--|
------------------------|------------------------|-----------------------|------------------------|------------------------|-----------------------|------------------------|------------------------|-----------------------|------------2--3--------|------------------------|------------------2----|----2----2--0--1--2--3--|--3--2----2----x--2--2--|----2----2--5--2--0----|----0----0--------0--1--|--1--0----0----0--0--0--|----0----0--3--0-------|
----------------------------------|------------------------------|----------------------------------|------------------10---9---8--|----------------------------------|------------------------------|----------------------------------|------------------7----6---5--|----------------------------------|------------------------------|--0-0-3-0-3/5-0-0-3-0-3/5-0-0-3/5-|--0-0-3-0-3/5-0-0-------------|
----------------------------------|------------------------------|----------------------------------|------------------10---9---8--|----------------------------------|------------------------------|----------------------------------|------------------7----6---5--|----------------------------------|------------------------------|--0-0-3-0-3/5-0-0-3-0-3/5-0-0-3/5-|--0-0-3-0-3/5-0-0-------------|
----------------------------------|----------------------------------|----------------------------------|----------------------------------|----------------------------------|----------------------------------|----------------------------------|----------------------------------|----------------------------------|----------------------------------|--0-0-3-0-3/5-0-0-3-0-3/5-0-0-3-0-|--3/5-0-0-5-0-5/6-0-0-6-0-6/7-0-0-|
E7(9#) -----------------------------------|---------------------|-------------------|-----------------------------------|---------------------|--8----------------|-----------------------------------|---------------------|--7----------------|-----------------------------------|---------------------|--6----------------|-----------------------------------|---------------------|--7----------------|--7-0-7/8-0-0-8-0-8/9-0-0-9-0-9/10-|--0-0-10-0-10/11-0-0-|-------------------|
-------------------|---------------0------0-----------|-------------------|-----3h5h3h0-----0-3b---3h0-------|-------------------|-------------4--------------3h2h0-|--2----------------|----------------------------------|--2----------------|----------------------------------|--0----------------|--0-------------------------------|
--------------------------------|---------------0------0-----------|--------------------------------|-----3h5h3h0-----0-3b---3-0-------|--2-0-2r-2h0-----0--------------|-------------4--------------3h2h0-|-------------2-0---2-0----------|----------------------------------|-----------------------2h1h0----|----------------------------------|-----------------------------3b-|--0-------------------------------|
--------------------------------|---------------0------0-----------|-----------------10r-10-8-10~---|-----3h5h3h0-----0-3b---3-0-------|--2-0-2r-2h0--------------------|-------------4--------------3-2-0-|-------------2-0----------------|----------------------------------|--------------------------------|----------------------------------|--------------------------------|--0-------------------------------|
--------------------------------|------------------12-------------12-14h12-|--------------------------------|------------15b------15h12----12----------|--2h0-2r-2h0-----0--------------|----------x----------------14b------------|-------------2h0---2h0----------|--------x---------------------------------|-----------------------2h1h0----|------x-----------------------------------|-----------------------------3b-|--0---------------------------------------|
----------12--------------------------|------------------|------------------|--12-15b-----15-12--------------------|------------------|------------------|-------------------14r-12-14-12-14~---|------------------|------------------|--------------------------------------|------------------|------------------|--------------------------------------|------------------|------------------|--------------------------------------|------------------|------------------|
------------------|------------------|------------------|------------------|------------------|------------------|------------------|------------------|------------------|------------------|------------------|------------------|------------------|------------------|------------------|------------------|------------------|------------------|------------------|------------------|------------------|------------------|------------------|------------------|
------------------------------------|----------------------------------|------------------------------------|----------------------------------|------------------------------------|----------------------------------|------------------------------------|----------------------------------|------12/12/11/11/10/10/9/9/8/8/7/7/|--6/6/5/5/4/4/3/3/2/2/1/1/0/0/0/0-|------12/12/11/11/10/10/9/9/8/8/7/7/|--6/6/5/5/4/4/3/3/2/2/1/1/0/0/0/0-|
------------------------|------------------------|------------------------|------------------------|------------------------|------------------------|------------------------|------------------------|------------------------|------------------------|------------2--3--------|------------------------|--2----x--2----x--2--2--|----2----2--0--1--2--3--|--3--2----2----x--2--2--|--0----0--0----0--0--0--|----0----0--------0--1--|--1--0----0----0--0--0--|
-----------------------|------------------------|------------------------|-----------------------|------------------------|------------------------|-----------------------|------------------------|------------------------|------------------2----|------------------------|------------2--3--------|----2----2--5--2--0----|--2----x--2----x--2--2--|----2----2--0--1--2--3--|----0----0--3--0-------|--0----0--0----0--0--0--|----0----0--------0--1--|
------------------------|-----------------------|--------------------------|------------------------|-----------------------|--------------------------|------------------------|-----------------------|--------------------------|------------------------|------------------2----|--------------------------|--3--2----2----x--2--2--|----2----2--5--2--0----|--2--x--x--2--x--x--2--2--|--1--0----0----0--0--0--|----0----0--3--0-------|--0--0--0--0--0--0--0--0--|
--------------------------|---------------------------|--------------------------|----16r-----16b---12h0-----|--------------------------|-----------------------15--|--------------2--3--------|---------------------------|--x--2--x--2--0--1--2--3--|---------------------------|--0--0--0--0--------0--1--|---------------------------|
------------19~-----------|--------------------------|---12h17h12---------------|--------------------------|--------------------------|--------------------------|--------------------------|--------------------------|--------------------------|--2--x--x--2--x--x--2--2--|--------------------------|--0--0--0--0--0--0--0--0--|
--------------------------|---------------------------|--------22b--------21-|--------------------------|----15---------------------|----------------------|--------------------------|----14b-----12-14-------0--|----------------------|--------------2--3--------|------------------14-------|----------------------|--x--2--x--2--0--1--2--3--|---------------------------|----------------------|--0--0--0--0--------0--1--|---------------------------|----------------------|
--21-22-19---0-18h19h18h0-16h18h16h0-14h16h14h0-16h18h16h0-|-----------------------------------------------------------|-----------------------------------------------------------|-----------------------------------------------------------|-----------------------------------------------------------|-----------------------------------------------------------|
--14h16h14h0-12h14h12h0-10h12h10h0-9h10h9h0-7h9h7h6---|------------------------------------------------------|------------------------------------------------------|------------------------------------------------------|------------------------------------------------------|------------------------------------------------------|
---7h9h7h6------------------------|--------------------|-----------5h7h5h7h5--------------|------------15b-----|---------------------7h6h4--------|--------------------|---------------------------7~-----|--------------------|----------------------------------|--------------------|----------------------------------|--------------------|
--12-------------12-14h12---------12----------|-----15h12----12----------12-15b-----15h12----|-----------14b-----------------------------14b|----------------------------------------------|----------------------------------------------|----------------------------------------------|
-----12------------------------------------------|--12----15-12----12------------------------------|--------------14b---14r-12----14----12b----------|---------------------------14----14-----14h12----|----------------------------------------------14-|-------------------------------------------------|
----------------------------------------|------------------|-------------------|----------------------------------------|------------------|--3----------------|----------------------------------------|------------------|--1----------------|--12-14-12------------------------------|------------------|--2----------------|-----------14-13-12-10------12----10~---|------------------|--2----------------|-------------------------12----12-------|------------------|--0----------------|
------------------|------------------|-------------------||------------------|------------------|--3----------------||------------------|------------------|--1----------------||------------------|------------------|--2----------------||------------------|------------------|--2----------------||------------------|------------------|--0----------------||
Tap to rate this tab
 
# A B C D E F G H I J K L M N O P Q R S T U V W X Y Z